  0
SECTION
  2
HEADER
  9
$ACADVER
  1
AC1015
  9
$ACADMAINTVER
 70
     6
  9
$DWGCODEPAGE
  3
ANSI_1252
  9
$INSBASE
 10
0.0
 20
0.0
 30
0.0
  9
$EXTMIN
 10
-22.7553926255602
 20
-21.80874549254309
 30
-0.0000000100021362
  9
$EXTMAX
 10
32.14118187679358
 20
29.16035212319274
 30
0.0000000100021363
  9
$LIMMIN
 10
0.0
 20
0.0
  9
$LIMMAX
 10
11.0
 20
8.5
  9
$ORTHOMODE
 70
     0
  9
$REGENMODE
 70
     1
  9
$FILLMODE
 70
     1
  9
$QTEXTMODE
 70
     0
  9
$MIRRTEXT
 70
     1
  9
$LTSCALE
 40
1.0
  9
$ATTMODE
 70
     1
  9
$TEXTSIZE
 40
0.2
  9
$TRACEWID
 40
0.05
  9
$TEXTSTYLE
  7
Standard
  9
$CLAYER
  8
0
  9
$CELTYPE
  6
ByLayer
  9
$CECOLOR
 62
   256
  9
$CELTSCALE
 40
1.0
  9
$DISPSILH
 70
     0
  9
$DIMSCALE
 40
1.0
  9
$DIMASZ
 40
0.09
  9
$DIMEXO
 40
0.05
  9
$DIMDLI
 40
0.38
  9
$DIMRND
 40
0.0
  9
$DIMDLE
 40
0.0
  9
$DIMEXE
 40
0.0625
  9
$DIMTP
 40
0.0
  9
$DIMTM
 40
0.0
  9
$DIMTXT
 40
0.1666666666666666
  9
$DIMCEN
 40
0.09
  9
$DIMTSZ
 40
0.0
  9
$DIMTOL
 70
     0
  9
$DIMLIM
 70
     0
  9
$DIMTIH
 70
     1
  9
$DIMTOH
 70
     1
  9
$DIMSE1
 70
     0
  9
$DIMSE2
 70
     0
  9
$DIMTAD
 70
     0
  9
$DIMZIN
 70
     0
  9
$DIMBLK
  1

  9
$DIMASO
 70
     1
  9
$DIMSHO
 70
     1
  9
$DIMPOST
  1

  9
$DIMAPOST
  1

  9
$DIMALT
 70
     0
  9
$DIMALTD
 70
     2
  9
$DIMALTF
 40
25.4
  9
$DIMLFAC
 40
1.0
  9
$DIMTOFL
 70
     0
  9
$DIMTVP
 40
0.0
  9
$DIMTIX
 70
     0
  9
$DIMSOXD
 70
     0
  9
$DIMSAH
 70
     0
  9
$DIMBLK1
  1

  9
$DIMBLK2
  1

  9
$DIMSTYLE
  2
Standard
  9
$DIMCLRD
 70
     0
  9
$DIMCLRE
 70
     0
  9
$DIMCLRT
 70
     0
  9
$DIMTFAC
 40
1.0
  9
$DIMGAP
 40
0.06
  9
$DIMJUST
 70
     0
  9
$DIMSD1
 70
     0
  9
$DIMSD2
 70
     0
  9
$DIMTOLJ
 70
     1
  9
$DIMTZIN
 70
     0
  9
$DIMALTZ
 70
     0
  9
$DIMALTTZ
 70
     0
  9
$DIMUPT
 70
     0
  9
$DIMDEC
 70
     4
  9
$DIMTDEC
 70
     4
  9
$DIMALTU
 70
     2
  9
$DIMALTTD
 70
     2
  9
$DIMTXSTY
  7
Standard
  9
$DIMAUNIT
 70
     0
  9
$DIMADEC
 70
     0
  9
$DIMALTRND
 40
0.0
  9
$DIMAZIN
 70
     0
  9
$DIMDSEP
 70
    46
  9
$DIMATFIT
 70
     3
  9
$DIMFRAC
 70
     0
  9
$DIMLDRBLK
  1

  9
$DIMLUNIT
 70
     2
  9
$DIMLWD
 70
    -2
  9
$DIMLWE
 70
    -2
  9
$DIMTMOVE
 70
     0
  9
$LUNITS
 70
     2
  9
$LUPREC
 70
     3
  9
$SKETCHINC
 40
0.1
  9
$FILLETRAD
 40
0.5
  9
$AUNITS
 70
     0
  9
$AUPREC
 70
     0
  9
$MENU
  1
.
  9
$ELEVATION
 40
0.0
  9
$PELEVATION
 40
0.0
  9
$THICKNESS
 40
0.0
  9
$LIMCHECK
 70
     0
  9
$CHAMFERA
 40
0.5
  9
$CHAMFERB
 40
0.5
  9
$CHAMFERC
 40
1.0
  9
$CHAMFERD
 40
0.0
  9
$SKPOLY
 70
     0
  9
$TDCREATE
 40
2454719.593825555
  9
$TDUCREATE
 40
2454719.802158888
  9
$TDUPDATE
 40
2454719.605326562
  9
$TDUUPDATE
 40
2454719.813659895
  9
$TDINDWG
 40
0.0066057060
  9
$TDUSRTIMER
 40
0.0066057060
  9
$USRTIMER
 70
     1
  9
$ANGBASE
 50
0.0
  9
$ANGDIR
 70
     0
  9
$PDMODE
 70
     0
  9
$PDSIZE
 40
-1.0
  9
$PLINEWID
 40
0.0
  9
$SPLFRAME
 70
     0
  9
$SPLINETYPE
 70
     6
  9
$SPLINESEGS
 70
     8
  9
$HANDSEED
  5
267
  9
$SURFTAB1
 70
     6
  9
$SURFTAB2
 70
     6
  9
$SURFTYPE
 70
     6
  9
$SURFU
 70
     6
  9
$SURFV
 70
     6
  9
$UCSBASE
  2

  9
$UCSNAME
  2

  9
$UCSORG
 10
0.0
 20
0.0
 30
0.0
  9
$UCSXDIR
 10
1.0
 20
0.0
 30
0.0
  9
$UCSYDIR
 10
0.0
 20
1.0
 30
0.0
  9
$UCSORTHOREF
  2

  9
$UCSORTHOVIEW
 70
     0
  9
$UCSORGTOP
 10
0.0
 20
0.0
 30
0.0
  9
$UCSORGBOTTOM
 10
0.0
 20
0.0
 30
0.0
  9
$UCSORGLEFT
 10
0.0
 20
0.0
 30
0.0
  9
$UCSORGRIGHT
 10
0.0
 20
0.0
 30
0.0
  9
$UCSORGFRONT
 10
0.0
 20
0.0
 30
0.0
  9
$UCSORGBACK
 10
0.0
 20
0.0
 30
0.0
  9
$PUCSBASE
  2

  9
$PUCSNAME
  2

  9
$PUCSORG
 10
0.0
 20
0.0
 30
0.0
  9
$PUCSXDIR
 10
1.0
 20
0.0
 30
0.0
  9
$PUCSYDIR
 10
0.0
 20
1.0
 30
0.0
  9
$PUCSORTHOREF
  2

  9
$PUCSORTHOVIEW
 70
     0
  9
$PUCSORGTOP
 10
0.0
 20
0.0
 30
0.0
  9
$PUCSORGBOTTOM
 10
0.0
 20
0.0
 30
0.0
  9
$PUCSORGLEFT
 10
0.0
 20
0.0
 30
0.0
  9
$PUCSORGRIGHT
 10
0.0
 20
0.0
 30
0.0
  9
$PUCSORGFRONT
 10
0.0
 20
0.0
 30
0.0
  9
$PUCSORGBACK
 10
0.0
 20
0.0
 30
0.0
  9
$USERI1
 70
     0
  9
$USERI2
 70
     0
  9
$USERI3
 70
     0
  9
$USERI4
 70
     0
  9
$USERI5
 70
     0
  9
$USERR1
 40
0.0
  9
$USERR2
 40
0.0
  9
$USERR3
 40
0.0
  9
$USERR4
 40
0.0
  9
$USERR5
 40
0.0
  9
$WORLDVIEW
 70
     1
  9
$SHADEDGE
 70
     3
  9
$SHADEDIF
 70
    70
  9
$TILEMODE
 70
     1
  9
$MAXACTVP
 70
    64
  9
$PINSBASE
 10
0.0
 20
0.0
 30
0.0
  9
$PLIMCHECK
 70
     0
  9
$PEXTMIN
 10
1.000000000000000E+20
 20
1.000000000000000E+20
 30
1.000000000000000E+20
  9
$PEXTMAX
 10
-1.000000000000000E+20
 20
-1.000000000000000E+20
 30
-1.000000000000000E+20
  9
$PLIMMIN
 10
0.0
 20
0.0
  9
$PLIMMAX
 10
12.0
 20
9.0
  9
$UNITMODE
 70
     0
  9
$VISRETAIN
 70
     1
  9
$PLINEGEN
 70
     0
  9
$PSLTSCALE
 70
     1
  9
$TREEDEPTH
 70
  3020
  9
$CMLSTYLE
  2
Standard
  9
$CMLJUST
 70
     0
  9
$CMLSCALE
 40
1.0
  9
$PROXYGRAPHICS
 70
     1
  9
$MEASUREMENT
 70
     0
  9
$CELWEIGHT
370
    -1
  9
$ENDCAPS
280
     0
  9
$JOINSTYLE
280
     0
  9
$LWDISPLAY
290
     1
  9
$INSUNITS
 70
     1
  9
$HYPERLINKBASE
  1

  9
$STYLESHEET
  1

  9
$XEDIT
290
     1
  9
$CEPSNTYPE
380
     0
  9
$PSTYLEMODE
290
     1
  9
$FINGERPRINTGUID
  2
{D1EED8EA-2371-43EE-858E-49452D927997}
  9
$VERSIONGUID
  2
{93529DEB-12AF-4A34-AF88-B72CC7EEDE38}
  9
$EXTNAMES
290
     1
  9
$PSVPSCALE
 40
0.0
  9
$OLESTARTUP
290
     0
  0
ENDSEC
  0
SECTION
  2
CLASSES
  0
CLASS
  1
ACDBDICTIONARYWDFLT
  2
AcDbDictionaryWithDefault
  3
AutoCAD 2000
 90
        0
280
     0
281
     0
  0
CLASS
  1
VISUALSTYLE
  2
AcDbVisualStyle
  3
ObjectDBX Classes
 90
     4095
280
     0
281
     0
  0
CLASS
  1
SCALE
  2
AcDbScale
  3
ObjectDBX Classes
 90
     1153
280
     0
281
     0
  0
CLASS
  1
DICTIONARYVAR
  2
AcDbDictionaryVar
  3
AutoCAD 2000
 90
        0
280
     0
281
     0
  0
CLASS
  1
ACDBPLACEHOLDER
  2
AcDbPlaceHolder
  3
AutoCAD 2000
 90
        0
280
     0
281
     0
  0
CLASS
  1
LAYOUT
  2
AcDbLayout
  3
AutoCAD 2000
 90
        0
280
     0
281
     0
  0
ENDSEC
  0
SECTION
  2
TABLES
  0
TABLE
  2
VPORT
  5
8
330
0
100
AcDbSymbolTable
 70
     4
  0
VPORT
  5
266
330
8
100
AcDbSymbolTableRecord
100
AcDbViewportTableRecord
  2
*Active
 70
     0
 10
0.0
 20
0.0
 11
1.0
 21
1.0
 12
14.75062027091897
 22
3.67580331532482
 13
0.0
 23
0.0
 14
0.5
 24
0.5
 15
0.5
 25
0.5
 16
0.0
 26
0.0
 36
1.0
 17
0.0
 27
0.0
 37
0.0
 40
51.54071366376278
 41
1.775280898876404
 42
50.0
 43
0.0
 44
0.0
 50
0.0
 51
0.0
 71
     0
 72
  2000
 73
     1
 74
     3
 75
     0
 76
     0
 77
     0
 78
     0
281
     0
 65
     1
110
0.0
120
0.0
130
0.0
111
1.0
121
0.0
131
0.0
112
0.0
122
1.0
132
0.0
 79
     0
146
0.0
  0
ENDTAB
  0
TABLE
  2
LTYPE
  5
5
330
0
100
AcDbSymbolTable
 70
     6
  0
LTYPE
  5
14
330
5
100
AcDbSymbolTableRecord
100
AcDbLinetypeTableRecord
  2
ByBlock
 70
     0
  3

 72
    65
 73
     0
 40
0.0
  0
LTYPE
  5
15
330
5
100
AcDbSymbolTableRecord
100
AcDbLinetypeTableRecord
  2
ByLayer
 70
     0
  3

 72
    65
 73
     0
 40
0.0
  0
LTYPE
  5
16
330
5
100
AcDbSymbolTableRecord
100
AcDbLinetypeTableRecord
  2
Continuous
 70
     0
  3
Solid line
 72
    65
 73
     0
 40
0.0
  0
LTYPE
  5
5D
330
5
100
AcDbSymbolTableRecord
100
AcDbLinetypeTableRecord
  2
HIDDEN
 70
     0
  3
Hidden __ __ __ __ __ __ __ __ __ __ __ __ __ __
 72
    65
 73
     2
 40
0.075
 49
0.05
 74
     0
 49
-0.025
 74
     0
  0
LTYPE
  5
5E
330
5
100
AcDbSymbolTableRecord
100
AcDbLinetypeTableRecord
  2
PHANTOM
 70
     0
  3
Phantom ______  __  __  ______  __  __  ______
 72
    65
 73
     6
 40
0.5
 49
0.25
 74
     0
 49
-0.05
 74
     0
 49
0.05
 74
     0
 49
-0.05
 74
     0
 49
0.05
 74
     0
 49
-0.05
 74
     0
  0
LTYPE
  5
5F
330
5
100
AcDbSymbolTableRecord
100
AcDbLinetypeTableRecord
  2
CENTER
 70
     0
  3
Center ____ _ ____ _ ____ _ ____ _ ____ _ ____
 72
    65
 73
     4
 40
0.4
 49
0.25
 74
     0
 49
-0.05
 74
     0
 49
0.05
 74
     0
 49
-0.05
 74
     0
  0
LTYPE
  5
60
330
5
100
AcDbSymbolTableRecord
100
AcDbLinetypeTableRecord
  2
CENTERX2
 70
     0
  3
Center (2x) ________  __  ________  __  _____
 72
    65
 73
     4
 40
0.8
 49
0.5
 74
     0
 49
-0.1
 74
     0
 49
0.1
 74
     0
 49
-0.1
 74
     0
  0
LTYPE
  5
61
330
5
100
AcDbSymbolTableRecord
100
AcDbLinetypeTableRecord
  2
DOT2
 70
     0
  3
Dot (.5x) ........................................
 72
    65
 73
     2
 40
0.025
 49
0.0
 74
     0
 49
-0.025
 74
     0
  0
ENDTAB
  0
TABLE
  2
LAYER
  5
2
330
0
100
AcDbSymbolTable
 70
     3
  0
LAYER
  5
10
330
2
100
AcDbSymbolTableRecord
100
AcDbLayerTableRecord
  2
0
 70
     0
 62
     7
  6
Continuous
370
    -3
390
F
  0
LAYER
  5
62
330
2
100
AcDbSymbolTableRecord
100
AcDbLayerTableRecord
  2
SLD-0
 70
     0
 62
    -7
  6
Continuous
370
    -3
390
F
  0
LAYER
  5
63
330
2
100
AcDbSymbolTableRecord
100
AcDbLayerTableRecord
  2
FORMAT
 70
     0
 62
     7
  6
Continuous
370
    -3
390
F
  0
ENDTAB
  0
TABLE
  2
STYLE
  5
3
330
0
100
AcDbSymbolTable
 70
     2
  0
STYLE
  5
11
330
3
100
AcDbSymbolTableRecord
100
AcDbTextStyleTableRecord
  2
Standard
 70
     0
 40
0.0
 41
1.0
 50
0.0
 71
     0
 42
0.2
  3
txt
  4

  0
STYLE
  5
248
330
3
100
AcDbSymbolTableRecord
100
AcDbTextStyleTableRecord
  2
SLDTEXTSTYLE0
 70
     0
 40
0.0
 41
0.75
 50
0.0
 71
     0
 42
0.2
  3
TXT
  4

  0
ENDTAB
  0
TABLE
  2
VIEW
  5
6
330
0
100
AcDbSymbolTable
 70
     0
  0
ENDTAB
  0
TABLE
  2
UCS
  5
7
330
0
100
AcDbSymbolTable
 70
     0
  0
ENDTAB
  0
TABLE
  2
APPID
  5
9
330
0
100
AcDbSymbolTable
 70
     1
  0
APPID
  5
12
330
9
100
AcDbSymbolTableRecord
100
AcDbRegAppTableRecord
  2
ACAD
 70
     0
  0
ENDTAB
  0
TABLE
  2
DIMSTYLE
  5
A
330
0
100
AcDbSymbolTable
 70
     1
100
AcDbDimStyleTable
 71
     0
  0
DIMSTYLE
105
27
330
A
100
AcDbSymbolTableRecord
100
AcDbDimStyleTableRecord
  2
Standard
 70
     0
340
11
  0
ENDTAB
  0
TABLE
  2
BLOCK_RECORD
  5
1
330
0
100
AcDbSymbolTable
 70
     3
  0
BLOCK_RECORD
  5
1F
330
1
100
AcDbSymbolTableRecord
100
AcDbBlockTableRecord
  2
*Model_Space
340
22
  0
BLOCK_RECORD
  5
1B
330
1
100
AcDbSymbolTableRecord
100
AcDbBlockTableRecord
  2
*Paper_Space
340
1E
  0
BLOCK_RECORD
  5
23
330
1
100
AcDbSymbolTableRecord
100
AcDbBlockTableRecord
  2
*Paper_Space0
340
26
  0
ENDTAB
  0
ENDSEC
  0
SECTION
  2
BLOCKS
  0
BLOCK
  5
20
330
1F
100
AcDbEntity
  8
0
100
AcDbBlockBegin
  2
*Model_Space
 70
     0
 10
0.0
 20
0.0
 30
0.0
  3
*Model_Space
  1

  0
ENDBLK
  5
21
330
1F
100
AcDbEntity
  8
0
100
AcDbBlockEnd
  0
BLOCK
  5
1C
330
1B
100
AcDbEntity
 67
     1
  8
0
100
AcDbBlockBegin
  2
*Paper_Space
 70
     0
 10
0.0
 20
0.0
 30
0.0
  3
*Paper_Space
  1

  0
ENDBLK
  5
1D
330
1B
100
AcDbEntity
 67
     1
  8
0
100
AcDbBlockEnd
  0
BLOCK
  5
24
330
23
100
AcDbEntity
  8
0
100
AcDbBlockBegin
  2
*Paper_Space0
 70
     0
 10
0.0
 20
0.0
 30
0.0
  3
*Paper_Space0
  1

  0
ENDBLK
  5
25
330
23
100
AcDbEntity
  8
0
100
AcDbBlockEnd
  0
ENDSEC
  0
SECTION
  2
ENTITIES
  0
SPLINE
  5
64
330
1F
100
AcDbEntity
  8
0
  6
Continuous
 62
     7
370
    -3
100
AcDbSpline
210
0.0
220
0.0
230
1.0
 70
    24
 71
     1
 72
     4
 73
     2
 74
     0
 42
0.0000000001
 43
0.0000000001
 40
0.0
 40
0.0
 40
1.0
 40
1.0
 10
-2.060154143890991
 20
-20.89819126021935
 30
0.0
 10
-2.060154143890989
 20
-20.8861905455193
 30
0.0
  0
SPLINE
  5
65
330
1F
100
AcDbEntity
  8
0
  6
Continuous
 62
     7
370
    -3
100
AcDbSpline
210
0.0
220
0.0
230
1.0
 70
    24
 71
     1
 72
     4
 73
     2
 74
     0
 42
0.0000000001
 43
0.0000000001
 40
0.0
 40
0.0
 40
1.0
 40
1.0
 10
-2.060154143890989
 20
-20.64619033135559
 30
0.0
 10
-2.060154143890989
 20
-20.63819063710207
 30
0.0
  0
SPLINE
  5
66
330
1F
100
AcDbEntity
  8
0
  6
Continuous
 62
     7
370
    -3
100
AcDbSpline
210
0.0
220
0.0
230
1.0
 70
    24
 71
     1
 72
     4
 73
     2
 74
     0
 42
0.0000000001
 43
0.0000000001
 40
0.0
 40
0.0
 40
1.0
 40
1.0
 10
-2.060154143890989
 20
-20.39819042293836
 30
0.0
 10
-2.060154143890989
 20
-20.38618970823831
 30
0.0
  0
SPLINE
  5
67
330
1F
100
AcDbEntity
  8
0
  6
Continuous
 62
     7
370
    -3
100
AcDbSpline
210
0.0
220
0.0
230
1.0
 70
    24
 71
     1
 72
     4
 73
     2
 74
     0
 42
0.0000000001
 43
0.0000000001
 40
0.0
 40
0.0
 40
1.0
 40
1.0
 10
-2.060154143890987
 20
-20.14618949407459
 30
0.0
 10
-2.060154143890987
 20
-20.13818979982108
 30
0.0
  0
SPLINE
  5
68
330
1F
100
AcDbEntity
  8
0
  6
Continuous
 62
     7
370
    -3
100
AcDbSpline
210
0.0
220
0.0
230
1.0
 70
    24
 71
     1
 72
     4
 73
     2
 74
     0
 42
0.0000000001
 43
0.0000000001
 40
0.0
 40
0.0
 40
1.0
 40
1.0
 10
-2.060154143890987
 20
-19.89818958565736
 30
0.0
 10
-2.060154143890987
 20
-19.88619121759687
 30
0.0
  0
SPLINE
  5
69
330
1F
100
AcDbEntity
  8
0
  6
Continuous
 62
     7
370
    -3
100
AcDbSpline
210
0.0
220
0.0
230
1.0
 70
    24
 71
     1
 72
     4
 73
     2
 74
     0
 42
0.0000000001
 43
0.0000000001
 40
0.0
 40
0.0
 40
1.0
 40
1.0
 10
-2.060154143890985
 20
-19.64619100343315
 30
0.0
 10
-2.060154143890985
 20
-19.63819130917964
 30
0.0
  0
SPLINE
  5
6A
330
1F
100
AcDbEntity
  8
0
  6
Continuous
 62
     7
370
    -3
100
AcDbSpline
210
0.0
220
0.0
230
1.0
 70
    24
 71
     1
 72
     4
 73
     2
 74
     0
 42
0.0000000001
 43
0.0000000001
 40
0.0
 40
0.0
 40
1.0
 40
1.0
 10
-2.060154143890985
 20
-19.39819109501592
 30
0.0
 10
-2.060154143890985
 20
-19.38619038031587
 30
0.0
  0
SPLINE
  5
6B
330
1F
100
AcDbEntity
  8
0
  6
Continuous
 62
     7
370
    -3
100
AcDbSpline
210
0.0
220
0.0
230
1.0
 70
    24
 71
     1
 72
     4
 73
     2
 74
     0
 42
0.0000000001
 43
0.0000000001
 40
0.0
 40
0.0
 40
1.0
 40
1.0
 10
-2.154154657989024
 20
-19.38619038031587
 30
0.0
 10
-2.154154657989024
 20
-19.39819109501592
 30
0.0
  0
SPLINE
  5
6C
330
1F
100
AcDbEntity
  8
0
  6
Continuous
 62
     7
370
    -3
100
AcDbSpline
210
0.0
220
0.0
230
1.0
 70
    24
 71
     1
 72
     4
 73
     2
 74
     0
 42
0.0000000001
 43
0.0000000001
 40
0.0
 40
0.0
 40
1.0
 40
1.0
 10
-2.154154657989024
 20
-19.63819130917963
 30
0.0
 10
-2.154154657989024
 20
-19.64619100343315
 30
0.0
  0
SPLINE
  5
6D
330
1F
100
AcDbEntity
  8
0
  6
Continuous
 62
     7
370
    -3
100
AcDbSpline
210
0.0
220
0.0
230
1.0
 70
    24
 71
     1
 72
     4
 73
     2
 74
     0
 42
0.0000000001
 43
0.0000000001
 40
0.0
 40
0.0
 40
1.0
 40
1.0
 10
-2.154154657989026
 20
-19.88619121759686
 30
0.0
 10
-2.154154657989026
 20
-19.89818958565736
 30
0.0
  0
SPLINE
  5
6E
330
1F
100
AcDbEntity
  8
0
  6
Continuous
 62
     7
370
    -3
100
AcDbSpline
210
0.0
220
0.0
230
1.0
 70
    24
 71
     1
 72
     4
 73
     2
 74
     0
 42
0.0000000001
 43
0.0000000001
 40
0.0
 40
0.0
 40
1.0
 40
1.0
 10
-2.154154657989026
 20
-20.13818979982107
 30
0.0
 10
-2.154154657989026
 20
-20.14618949407459
 30
0.0
  0
SPLINE
  5
6F
330
1F
100
AcDbEntity
  8
0
  6
Continuous
 62
     7
370
    -3
100
AcDbSpline
210
0.0
220
0.0
230
1.0
 70
    24
 71
     1
 72
     4
 73
     2
 74
     0
 42
0.0000000001
 43
0.0000000001
 40
0.0
 40
0.0
 40
1.0
 40
1.0
 10
-2.154154657989029
 20
-20.3861897082383
 30
0.0
 10
-2.154154657989029
 20
-20.39819042293835
 30
0.0
  0
SPLINE
  5
70
330
1F
100
AcDbEntity
  8
0
  6
Continuous
 62
     7
370
    -3
100
AcDbSpline
210
0.0
220
0.0
230
1.0
 70
    24
 71
     1
 72
     4
 73
     2
 74
     0
 42
0.0000000001
 43
0.0000000001
 40
0.0
 40
0.0
 40
1.0
 40
1.0
 10
-2.154154657989029
 20
-20.63819063710206
 30
0.0
 10
-2.154154657989029
 20
-20.64619033135558
 30
0.0
  0
SPLINE
  5
71
330
1F
100
AcDbEntity
  8
0
  6
Continuous
 62
     7
370
    -3
100
AcDbSpline
210
0.0
220
0.0
230
1.0
 70
    24
 71
     1
 72
     4
 73
     2
 74
     0
 42
0.0000000001
 43
0.0000000001
 40
0.0
 40
0.0
 40
1.0
 40
1.0
 10
-2.154154657989029
 20
-20.8861905455193
 30
0.0
 10
-2.154154657989031
 20
-20.89819126021934
 30
0.0
  0
SPLINE
  5
72
330
1F
100
AcDbEntity
  8
0
  6
Continuous
 62
     7
370
    -3
100
AcDbSpline
210
0.0
220
0.0
230
1.0
 70
    24
 71
     1
 72
     4
 73
     2
 74
     0
 42
0.0000000001
 43
0.0000000001
 40
0.0
 40
0.0
 40
1.0
 40
1.0
 10
-2.060154143890974
 20
-16.18918965900769
 30
0.0
 10
-2.060154143890974
 20
-16.17719129094719
 30
0.0
  0
SPLINE
  5
73
330
1F
100
AcDbEntity
  8
0
  6
Continuous
 62
     7
370
    -3
100
AcDbSpline
210
0.0
220
0.0
230
1.0
 70
    24
 71
     1
 72
     4
 73
     2
 74
     0
 42
0.0000000001
 43
0.0000000001
 40
0.0
 40
0.0
 40
1.0
 40
1.0
 10
-2.060154143890971
 20
-15.9371899034637
 30
0.0
 10
-2.060154143890971
 20
-15.92919020921018
 30
0.0
  0
SPLINE
  5
74
330
1F
100
AcDbEntity
  8
0
  6
Continuous
 62
     7
370
    -3
100
AcDbSpline
210
0.0
220
0.0
230
1.0
 70
    24
 71
     1
 72
     4
 73
     2
 74
     0
 42
0.0000000001
 43
0.0000000001
 40
0.0
 40
0.0
 40
1.0
 40
1.0
 10
-2.060154143890971
 20
-15.68918999504647
 30
0.0
 10
-2.060154143890971
 20
-15.67719045366619
 30
0.0
  0
SPLINE
  5
75
330
1F
100
AcDbEntity
  8
0
  6
Continuous
 62
     7
370
    -3
100
AcDbSpline
210
0.0
220
0.0
230
1.0
 70
    24
 71
     1
 72
     4
 73
     2
 74
     0
 42
0.0000000001
 43
0.0000000001
 40
0.0
 40
0.0
 40
1.0
 40
1.0
 10
-2.060154143890969
 20
-15.43719023950248
 30
0.0
 10
-2.060154143890969
 20
-15.42919054524896
 30
0.0
  0
SPLINE
  5
76
330
1F
100
AcDbEntity
  8
0
  6
Continuous
 62
     7
370
    -3
100
AcDbSpline
210
0.0
220
0.0
230
1.0
 70
    24
 71
     1
 72
     4
 73
     2
 74
     0
 42
0.0000000001
 43
0.0000000001
 40
0.0
 40
0.0
 40
1.0
 40
1.0
 10
-2.060154143890969
 20
-15.18919033108525
 30
0.0
 10
-2.060154143890969
 20
-15.1771896163852
 30
0.0
  0
SPLINE
  5
77
330
1F
100
AcDbEntity
  8
0
  6
Continuous
 62
     7
370
    -3
100
AcDbSpline
210
0.0
220
0.0
230
1.0
 70
    24
 71
     1
 72
     4
 73
     2
 74
     0
 42
0.0000000001
 43
0.0000000001
 40
0.0
 40
0.0
 40
1.0
 40
1.0
 10
-2.060154143890967
 20
-14.93719057554127
 30
0.0
 10
-2.060154143890967
 20
-14.92918970796797
 30
0.0
  0
SPLINE
  5
78
330
1F
100
AcDbEntity
  8
0
  6
Continuous
 62
     7
370
    -3
100
AcDbSpline
210
0.0
220
0.0
230
1.0
 70
    24
 71
     1
 72
     4
 73
     2
 74
     0
 42
0.0000000001
 43
0.0000000001
 40
0.0
 40
0.0
 40
1.0
 40
1.0
 10
-2.060154143890967
 20
-14.68919066712404
 30
0.0
 10
-2.060154143890967
 20
-14.67718995242398
 30
0.0
  0
SPLINE
  5
79
330
1F
100
AcDbEntity
  8
0
  6
Continuous
 62
     7
370
    -3
100
AcDbSpline
210
0.0
220
0.0
230
1.0
 70
    24
 71
     1
 72
     4
 73
     2
 74
     0
 42
0.0000000001
 43
0.0000000001
 40
0.0
 40
0.0
 40
1.0
 40
1.0
 10
-2.154154657989007
 20
-14.67718995242398
 30
0.0
 10
-2.154154657989007
 20
-14.68919066712404
 30
0.0
  0
SPLINE
  5
7A
330
1F
100
AcDbEntity
  8
0
  6
Continuous
 62
     7
370
    -3
100
AcDbSpline
210
0.0
220
0.0
230
1.0
 70
    24
 71
     1
 72
     4
 73
     2
 74
     0
 42
0.0000000001
 43
0.0000000001
 40
0.0
 40
0.0
 40
1.0
 40
1.0
 10
-2.154154657989007
 20
-14.92918970796797
 30
0.0
 10
-2.154154657989007
 20
-14.93719057554127
 30
0.0
  0
SPLINE
  5
7B
330
1F
100
AcDbEntity
  8
0
  6
Continuous
 62
     7
370
    -3
100
AcDbSpline
210
0.0
220
0.0
230
1.0
 70
    24
 71
     1
 72
     4
 73
     2
 74
     0
 42
0.0000000001
 43
0.0000000001
 40
0.0
 40
0.0
 40
1.0
 40
1.0
 10
-2.154154657989009
 20
-15.1771896163852
 30
0.0
 10
-2.154154657989009
 20
-15.18919033108525
 30
0.0
  0
SPLINE
  5
7C
330
1F
100
AcDbEntity
  8
0
  6
Continuous
 62
     7
370
    -3
100
AcDbSpline
210
0.0
220
0.0
230
1.0
 70
    24
 71
     1
 72
     4
 73
     2
 74
     0
 42
0.0000000001
 43
0.0000000001
 40
0.0
 40
0.0
 40
1.0
 40
1.0
 10
-2.154154657989009
 20
-15.42919054524896
 30
0.0
 10
-2.154154657989009
 20
-15.43719023950248
 30
0.0
  0
SPLINE
  5
7D
330
1F
100
AcDbEntity
  8
0
  6
Continuous
 62
     7
370
    -3
100
AcDbSpline
210
0.0
220
0.0
230
1.0
 70
    24
 71
     1
 72
     4
 73
     2
 74
     0
 42
0.0000000001
 43
0.0000000001
 40
0.0
 40
0.0
 40
1.0
 40
1.0
 10
-2.154154657989011
 20
-15.67719045366619
 30
0.0
 10
-2.154154657989011
 20
-15.68918999504647
 30
0.0
  0
SPLINE
  5
7E
330
1F
100
AcDbEntity
  8
0
  6
Continuous
 62
     7
370
    -3
100
AcDbSpline
210
0.0
220
0.0
230
1.0
 70
    24
 71
     1
 72
     4
 73
     2
 74
     0
 42
0.0000000001
 43
0.0000000001
 40
0.0
 40
0.0
 40
1.0
 40
1.0
 10
-2.154154657989011
 20
-15.92919020921018
 30
0.0
 10
-2.154154657989011
 20
-15.9371899034637
 30
0.0
  0
SPLINE
  5
7F
330
1F
100
AcDbEntity
  8
0
  6
Continuous
 62
     7
370
    -3
100
AcDbSpline
210
0.0
220
0.0
230
1.0
 70
    24
 71
     1
 72
     4
 73
     2
 74
     0
 42
0.0000000001
 43
0.0000000001
 40
0.0
 40
0.0
 40
1.0
 40
1.0
 10
-2.154154657989014
 20
-16.17719129094719
 30
0.0
 10
-2.154154657989014
 20
-16.18918965900768
 30
0.0
  0
SPLINE
  5
80
330
1F
100
AcDbEntity
  8
0
  6
Continuous
 62
     7
370
    -3
100
AcDbSpline
210
0.0
220
0.0
230
1.0
 70
    24
 71
     1
 72
     4
 73
     2
 74
     0
 42
0.0000000001
 43
0.0000000001
 40
0.0
 40
0.0
 40
1.0
 40
1.0
 10
-2.18527931176769
 20
-16.18918965900768
 30
0.0
 10
-2.18527931176769
 20
-16.43419056206967
 30
0.0
  0
SPLINE
  5
81
330
1F
100
AcDbEntity
  8
0
  6
Continuous
 62
     7
370
    -3
100
AcDbSpline
210
0.0
220
0.0
230
1.0
 70
    24
 71
     1
 72
     4
 73
     2
 74
     0
 42
0.0000000001
 43
0.0000000001
 40
0.0
 40
0.0
 40
1.0
 40
1.0
 10
-2.185279311767688
 20
-15.68918999504647
 30
0.0
 10
-2.185279311767688
 20
-15.92919020921018
 30
0.0
  0
SPLINE
  5
82
330
1F
100
AcDbEntity
  8
0
  6
Continuous
 62
     7
370
    -3
100
AcDbSpline
210
0.0
220
0.0
230
1.0
 70
    24
 71
     1
 72
     4
 73
     2
 74
     0
 42
0.0000000001
 43
0.0000000001
 40
0.0
 40
0.0
 40
1.0
 40
1.0
 10
-2.185279311767686
 20
-15.18919033108525
 30
0.0
 10
-2.185279311767686
 20
-15.42919054524896
 30
0.0
  0
SPLINE
  5
83
330
1F
100
AcDbEntity
  8
0
  6
Continuous
 62
     7
370
    -3
100
AcDbSpline
210
0.0
220
0.0
230
1.0
 70
    24
 71
     1
 72
     4
 73
     2
 74
     0
 42
0.0000000001
 43
0.0000000001
 40
0.0
 40
0.0
 40
1.0
 40
1.0
 10
-2.185279311767684
 20
-14.68919066712404
 30
0.0
 10
-2.185279311767684
 20
-14.92918970796797
 30
0.0
  0
SPLINE
  5
84
330
1F
100
AcDbEntity
  8
0
  6
Continuous
 62
     7
370
    -3
100
AcDbSpline
210
0.0
220
0.0
230
1.0
 70
    24
 71
     1
 72
     4
 73
     2
 74
     0
 42
0.0000000001
 43
0.0000000001
 40
0.0
 40
0.0
 40
1.0
 40
1.0
 10
-2.185279311767708
 20
-20.89819126021934
 30
0.0
 10
-2.185279311767708
 20
-21.14318981664178
 30
0.0
  0
SPLINE
  5
85
330
1F
100
AcDbEntity
  8
0
  6
Continuous
 62
     7
370
    -3
100
AcDbSpline
210
0.0
220
0.0
230
1.0
 70
    24
 71
     1
 72
     4
 73
     2
 74
     0
 42
0.0000000001
 43
0.0000000001
 40
0.0
 40
0.0
 40
1.0
 40
1.0
 10
-2.185279311767706
 20
-20.39819042293835
 30
0.0
 10
-2.185279311767706
 20
-20.63819063710206
 30
0.0
  0
SPLINE
  5
86
330
1F
100
AcDbEntity
  8
0
  6
Continuous
 62
     7
370
    -3
100
AcDbSpline
210
0.0
220
0.0
230
1.0
 70
    24
 71
     1
 72
     4
 73
     2
 74
     0
 42
0.0000000001
 43
0.0000000001
 40
0.0
 40
0.0
 40
1.0
 40
1.0
 10
-2.185279311767704
 20
-19.89818958565736
 30
0.0
 10
-2.185279311767704
 20
-20.13818979982107
 30
0.0
  0
SPLINE
  5
87
330
1F
100
AcDbEntity
  8
0
  6
Continuous
 62
     7
370
    -3
100
AcDbSpline
210
0.0
220
0.0
230
1.0
 70
    24
 71
     1
 72
     4
 73
     2
 74
     0
 42
0.0000000001
 43
0.0000000001
 40
0.0
 40
0.0
 40
1.0
 40
1.0
 10
-2.185279311767701
 20
-19.39819109501592
 30
0.0
 10
-2.185279311767701
 20
-19.63819130917963
 30
0.0
  0
SPLINE
  5
88
330
1F
100
AcDbEntity
  8
0
  6
Continuous
 62
     7
370
    -3
100
AcDbSpline
210
0.0
220
0.0
230
1.0
 70
    24
 71
     1
 72
     4
 73
     2
 74
     0
 42
0.0000000001
 43
0.0000000001
 40
0.0
 40
0.0
 40
1.0
 40
1.0
 10
-2.029029490112297
 20
-16.17719129094719
 30
0.0
 10
-2.029029490112295
 20
-15.9371899034637
 30
0.0
  0
SPLINE
  5
89
330
1F
100
AcDbEntity
  8
0
  6
Continuous
 62
     7
370
    -3
100
AcDbSpline
210
0.0
220
0.0
230
1.0
 70
    24
 71
     1
 72
     4
 73
     2
 74
     0
 42
0.0000000001
 43
0.0000000001
 40
0.0
 40
0.0
 40
1.0
 40
1.0
 10
-2.185279311767688
 20
-15.9371899034637
 30
0.0
 10
-2.18527931176769
 20
-16.17719129094719
 30
0.0
  0
SPLINE
  5
8A
330
1F
100
AcDbEntity
  8
0
  6
Continuous
 62
     7
370
    -3
100
AcDbSpline
210
0.0
220
0.0
230
1.0
 70
    24
 71
     1
 72
     4
 73
     2
 74
     0
 42
0.0000000001
 43
0.0000000001
 40
0.0
 40
0.0
 40
1.0
 40
1.0
 10
-2.029029490112295
 20
-15.67719045366619
 30
0.0
 10
-2.029029490112292
 20
-15.43719023950248
 30
0.0
  0
SPLINE
  5
8B
330
1F
100
AcDbEntity
  8
0
  6
Continuous
 62
     7
370
    -3
100
AcDbSpline
210
0.0
220
0.0
230
1.0
 70
    24
 71
     1
 72
     4
 73
     2
 74
     0
 42
0.0000000001
 43
0.0000000001
 40
0.0
 40
0.0
 40
1.0
 40
1.0
 10
-2.185279311767686
 20
-15.43719023950248
 30
0.0
 10
-2.185279311767688
 20
-15.67719045366619
 30
0.0
  0
SPLINE
  5
8C
330
1F
100
AcDbEntity
  8
0
  6
Continuous
 62
     7
370
    -3
100
AcDbSpline
210
0.0
220
0.0
230
1.0
 70
    24
 71
     1
 72
     4
 73
     2
 74
     0
 42
0.0000000001
 43
0.0000000001
 40
0.0
 40
0.0
 40
1.0
 40
1.0
 10
-2.029029490112292
 20
-15.1771896163852
 30
0.0
 10
-2.02902949011229
 20
-14.93719057554127
 30
0.0
  0
SPLINE
  5
8D
330
1F
100
AcDbEntity
  8
0
  6
Continuous
 62
     7
370
    -3
100
AcDbSpline
210
0.0
220
0.0
230
1.0
 70
    24
 71
     1
 72
     4
 73
     2
 74
     0
 42
0.0000000001
 43
0.0000000001
 40
0.0
 40
0.0
 40
1.0
 40
1.0
 10
-2.185279311767684
 20
-14.93719057554127
 30
0.0
 10
-2.185279311767686
 20
-15.1771896163852
 30
0.0
  0
SPLINE
  5
8E
330
1F
100
AcDbEntity
  8
0
  6
Continuous
 62
     7
370
    -3
100
AcDbSpline
210
0.0
220
0.0
230
1.0
 70
    24
 71
     1
 72
     4
 73
     2
 74
     0
 42
0.0000000001
 43
0.0000000001
 40
0.0
 40
0.0
 40
1.0
 40
1.0
 10
-2.02902949011229
 20
-14.67718995242398
 30
0.0
 10
-2.02902949011229
 20
-14.43219022268177
 30
0.0
  0
SPLINE
  5
8F
330
1F
100
AcDbEntity
  8
0
  6
Continuous
 62
     7
370
    -3
100
AcDbSpline
210
0.0
220
0.0
230
1.0
 70
    24
 71
     1
 72
     4
 73
     2
 74
     0
 42
0.0000000001
 43
0.0000000001
 40
0.0
 40
0.0
 40
1.0
 40
1.0
 10
-2.185279311767684
 20
-14.43219022268177
 30
0.0
 10
-2.185279311767684
 20
-14.67718995242398
 30
0.0
  0
SPLINE
  5
90
330
1F
100
AcDbEntity
  8
0
  6
Continuous
 62
     7
370
    -3
100
AcDbSpline
210
0.0
220
0.0
230
1.0
 70
    24
 71
     1
 72
     4
 73
     2
 74
     0
 42
0.0000000001
 43
0.0000000001
 40
0.0
 40
0.0
 40
1.0
 40
1.0
 10
-2.029029490112312
 20
-20.8861905455193
 30
0.0
 10
-2.029029490112312
 20
-20.64619033135559
 30
0.0
  0
SPLINE
  5
91
330
1F
100
AcDbEntity
  8
0
  6
Continuous
 62
     7
370
    -3
100
AcDbSpline
210
0.0
220
0.0
230
1.0
 70
    24
 71
     1
 72
     4
 73
     2
 74
     0
 42
0.0000000001
 43
0.0000000001
 40
0.0
 40
0.0
 40
1.0
 40
1.0
 10
-2.185279311767706
 20
-20.64619033135558
 30
0.0
 10
-2.185279311767706
 20
-20.8861905455193
 30
0.0
  0
SPLINE
  5
92
330
1F
100
AcDbEntity
  8
0
  6
Continuous
 62
     7
370
    -3
100
AcDbSpline
210
0.0
220
0.0
230
1.0
 70
    24
 71
     1
 72
     4
 73
     2
 74
     0
 42
0.0000000001
 43
0.0000000001
 40
0.0
 40
0.0
 40
1.0
 40
1.0
 10
-2.029029490112312
 20
-20.38618970823831
 30
0.0
 10
-2.02902949011231
 20
-20.14618949407459
 30
0.0
  0
SPLINE
  5
93
330
1F
100
AcDbEntity
  8
0
  6
Continuous
 62
     7
370
    -3
100
AcDbSpline
210
0.0
220
0.0
230
1.0
 70
    24
 71
     1
 72
     4
 73
     2
 74
     0
 42
0.0000000001
 43
0.0000000001
 40
0.0
 40
0.0
 40
1.0
 40
1.0
 10
-2.185279311767704
 20
-20.14618949407459
 30
0.0
 10
-2.185279311767706
 20
-20.3861897082383
 30
0.0
  0
SPLINE
  5
94
330
1F
100
AcDbEntity
  8
0
  6
Continuous
 62
     7
370
    -3
100
AcDbSpline
210
0.0
220
0.0
230
1.0
 70
    24
 71
     1
 72
     4
 73
     2
 74
     0
 42
0.0000000001
 43
0.0000000001
 40
0.0
 40
0.0
 40
1.0
 40
1.0
 10
-2.02902949011231
 20
-19.88619121759687
 30
0.0
 10
-2.029029490112308
 20
-19.64619100343315
 30
0.0
  0
SPLINE
  5
95
330
1F
100
AcDbEntity
  8
0
  6
Continuous
 62
     7
370
    -3
100
AcDbSpline
210
0.0
220
0.0
230
1.0
 70
    24
 71
     1
 72
     4
 73
     2
 74
     0
 42
0.0000000001
 43
0.0000000001
 40
0.0
 40
0.0
 40
1.0
 40
1.0
 10
-2.185279311767701
 20
-19.64619100343315
 30
0.0
 10
-2.185279311767704
 20
-19.88619121759686
 30
0.0
  0
SPLINE
  5
96
330
1F
100
AcDbEntity
  8
0
  6
Continuous
 62
     7
370
    -3
100
AcDbSpline
210
0.0
220
0.0
230
1.0
 70
    24
 71
     1
 72
     4
 73
     2
 74
     0
 42
0.0000000001
 43
0.0000000001
 40
0.0
 40
0.0
 40
1.0
 40
1.0
 10
-2.029029490112308
 20
-19.38619038031587
 30
0.0
 10
-2.029029490112308
 20
-19.14118947725388
 30
0.0
  0
SPLINE
  5
97
330
1F
100
AcDbEntity
  8
0
  6
Continuous
 62
     7
370
    -3
100
AcDbSpline
210
0.0
220
0.0
230
1.0
 70
    24
 71
     1
 72
     4
 73
     2
 74
     0
 42
0.0000000001
 43
0.0000000001
 40
0.0
 40
0.0
 40
1.0
 40
1.0
 10
-2.185279311767701
 20
-19.14118947725387
 30
0.0
 10
-2.185279311767701
 20
-19.38619038031587
 30
0.0
  0
LINE
  5
98
330
1F
100
AcDbEntity
  8
0
  6
Continuous
 62
     7
370
    -3
100
AcDbLine
 10
-2.029029490112297
 20
-16.43419056206968
 30
0.0
 11
-2.029029490112297
 21
-16.18918965900769
 31
0.0
  0
LINE
  5
99
330
1F
100
AcDbEntity
  8
0
  6
Continuous
 62
     7
370
    -3
100
AcDbLine
 10
-2.029029490112297
 20
-16.18918965900769
 30
0.0
 11
-2.18527931176769
 21
-16.18918965900768
 31
0.0
  0
LINE
  5
9A
330
1F
100
AcDbEntity
  8
0
  6
Continuous
 62
     7
370
    -3
100
AcDbLine
 10
-2.029029490112297
 20
-16.43419056206968
 30
0.0
 11
-2.18527931176769
 21
-16.43419056206967
 31
0.0
  0
LINE
  5
9B
330
1F
100
AcDbEntity
  8
0
  6
Continuous
 62
     7
370
    -3
100
AcDbLine
 10
-2.029029490112295
 20
-15.92919020921018
 30
0.0
 11
-2.029029490112295
 21
-15.68918999504647
 31
0.0
  0
LINE
  5
9C
330
1F
100
AcDbEntity
  8
0
  6
Continuous
 62
     7
370
    -3
100
AcDbLine
 10
-2.029029490112295
 20
-15.68918999504647
 30
0.0
 11
-2.185279311767688
 21
-15.68918999504647
 31
0.0
  0
LINE
  5
9D
330
1F
100
AcDbEntity
  8
0
  6
Continuous
 62
     7
370
    -3
100
AcDbLine
 10
-2.185279311767688
 20
-15.92919020921018
 30
0.0
 11
-2.029029490112295
 21
-15.92919020921018
 31
0.0
  0
LINE
  5
9E
330
1F
100
AcDbEntity
  8
0
  6
Continuous
 62
     7
370
    -3
100
AcDbLine
 10
-2.029029490112292
 20
-15.42919054524896
 30
0.0
 11
-2.029029490112292
 21
-15.18919033108525
 31
0.0
  0
LINE
  5
9F
330
1F
100
AcDbEntity
  8
0
  6
Continuous
 62
     7
370
    -3
100
AcDbLine
 10
-2.185279311767686
 20
-15.42919054524896
 30
0.0
 11
-2.029029490112292
 21
-15.42919054524896
 31
0.0
  0
LINE
  5
A0
330
1F
100
AcDbEntity
  8
0
  6
Continuous
 62
     7
370
    -3
100
AcDbLine
 10
-2.029029490112292
 20
-15.18919033108525
 30
0.0
 11
-2.185279311767686
 21
-15.18919033108525
 31
0.0
  0
LINE
  5
A1
330
1F
100
AcDbEntity
  8
0
  6
Continuous
 62
     7
370
    -3
100
AcDbLine
 10
-2.02902949011229
 20
-14.92918970796797
 30
0.0
 11
-2.02902949011229
 21
-14.68919066712404
 31
0.0
  0
LINE
  5
A2
330
1F
100
AcDbEntity
  8
0
  6
Continuous
 62
     7
370
    -3
100
AcDbLine
 10
-2.02902949011229
 20
-14.68919066712404
 30
0.0
 11
-2.185279311767684
 21
-14.68919066712404
 31
0.0
  0
LINE
  5
A3
330
1F
100
AcDbEntity
  8
0
  6
Continuous
 62
     7
370
    -3
100
AcDbLine
 10
-2.185279311767684
 20
-14.92918970796797
 30
0.0
 11
-2.02902949011229
 21
-14.92918970796797
 31
0.0
  0
LINE
  5
A4
330
1F
100
AcDbEntity
  8
0
  6
Continuous
 62
     7
370
    -3
100
AcDbLine
 10
-2.059197888271047
 20
-14.92918970796797
 30
0.0
 11
-2.059197888271047
 21
-14.93719057554127
 31
0.0
  0
LINE
  5
A5
330
1F
100
AcDbEntity
  8
0
  6
Continuous
 62
     7
370
    -3
100
AcDbLine
 10
-2.059197888271049
 20
-15.1771896163852
 30
0.0
 11
-2.059197888271049
 21
-15.18919033108525
 31
0.0
  0
LINE
  5
A6
330
1F
100
AcDbEntity
  8
0
  6
Continuous
 62
     7
370
    -3
100
AcDbLine
 10
-2.059197888271049
 20
-15.42919054524896
 30
0.0
 11
-2.059197888271049
 21
-15.43719023950248
 31
0.0
  0
LINE
  5
A7
330
1F
100
AcDbEntity
  8
0
  6
Continuous
 62
     7
370
    -3
100
AcDbLine
 10
-2.059197888271051
 20
-15.67719045366619
 30
0.0
 11
-2.059197888271051
 21
-15.68918999504647
 31
0.0
  0
LINE
  5
A8
330
1F
100
AcDbEntity
  8
0
  6
Continuous
 62
     7
370
    -3
100
AcDbLine
 10
-2.059197888271051
 20
-15.92919020921018
 30
0.0
 11
-2.059197888271051
 21
-15.9371899034637
 31
0.0
  0
LINE
  5
A9
330
1F
100
AcDbEntity
  8
0
  6
Continuous
 62
     7
370
    -3
100
AcDbLine
 10
-2.059197888271054
 20
-16.17719129094719
 30
0.0
 11
-2.059197888271054
 21
-16.18918965900769
 31
0.0
  0
LINE
  5
AA
330
1F
100
AcDbEntity
  8
0
  6
Continuous
 62
     7
370
    -3
100
AcDbLine
 10
-2.059866680545108
 20
-16.18918965900769
 30
0.0
 11
-2.059866680545108
 21
-16.17719129094719
 31
0.0
  0
LINE
  5
AB
330
1F
100
AcDbEntity
  8
0
  6
Continuous
 62
     7
370
    -3
100
AcDbLine
 10
-2.059866680545106
 20
-15.9371899034637
 30
0.0
 11
-2.059866680545106
 21
-15.92919020921018
 31
0.0
  0
LINE
  5
AC
330
1F
100
AcDbEntity
  8
0
  6
Continuous
 62
     7
370
    -3
100
AcDbLine
 10
-2.059866680545106
 20
-15.68918999504647
 30
0.0
 11
-2.059866680545106
 21
-15.67719045366619
 31
0.0
  0
LINE
  5
AD
330
1F
100
AcDbEntity
  8
0
  6
Continuous
 62
     7
370
    -3
100
AcDbLine
 10
-2.059866680545104
 20
-15.43719023950248
 30
0.0
 11
-2.059866680545104
 21
-15.42919054524896
 31
0.0
  0
LINE
  5
AE
330
1F
100
AcDbEntity
  8
0
  6
Continuous
 62
     7
370
    -3
100
AcDbLine
 10
-2.059866680545104
 20
-15.18919033108525
 30
0.0
 11
-2.059866680545104
 21
-15.1771896163852
 31
0.0
  0
LINE
  5
AF
330
1F
100
AcDbEntity
  8
0
  6
Continuous
 62
     7
370
    -3
100
AcDbLine
 10
-2.059866680545102
 20
-14.93719057554127
 30
0.0
 11
-2.059866680545102
 21
-14.92918970796797
 31
0.0
  0
LINE
  5
B0
330
1F
100
AcDbEntity
  8
0
  6
Continuous
 62
     7
370
    -3
100
AcDbLine
 10
-2.059866680545102
 20
-14.68919066712404
 30
0.0
 11
-2.059866680545102
 21
-14.67718995242398
 31
0.0
  0
LINE
  5
B1
330
1F
100
AcDbEntity
  8
0
  6
Continuous
 62
     7
370
    -3
100
AcDbLine
 10
-2.059197888271047
 20
-14.67718995242398
 30
0.0
 11
-2.059197888271047
 21
-14.68919066712404
 31
0.0
  0
LINE
  5
B2
330
1F
100
AcDbEntity
  8
0
  6
Continuous
 62
     7
370
    -3
100
AcDbLine
 10
-2.0291972748407
 20
-16.18918965900769
 30
0.0
 11
-2.0291972748407
 21
-16.17719129094719
 31
0.0
  0
LINE
  5
B3
330
1F
100
AcDbEntity
  8
0
  6
Continuous
 62
     7
370
    -3
100
AcDbLine
 10
-2.029197274840698
 20
-15.9371899034637
 30
0.0
 11
-2.029197274840698
 21
-15.92919020921018
 31
0.0
  0
LINE
  5
B4
330
1F
100
AcDbEntity
  8
0
  6
Continuous
 62
     7
370
    -3
100
AcDbLine
 10
-2.029197274840698
 20
-15.68918999504647
 30
0.0
 11
-2.029197274840698
 21
-15.67719045366619
 31
0.0
  0
LINE
  5
B5
330
1F
100
AcDbEntity
  8
0
  6
Continuous
 62
     7
370
    -3
100
AcDbLine
 10
-2.029197274840695
 20
-15.43719023950248
 30
0.0
 11
-2.029197274840695
 21
-15.42919054524896
 31
0.0
  0
LINE
  5
B6
330
1F
100
AcDbEntity
  8
0
  6
Continuous
 62
     7
370
    -3
100
AcDbLine
 10
-2.029197274840695
 20
-15.18919033108525
 30
0.0
 11
-2.029197274840695
 21
-15.1771896163852
 31
0.0
  0
LINE
  5
B7
330
1F
100
AcDbEntity
  8
0
  6
Continuous
 62
     7
370
    -3
100
AcDbLine
 10
-2.029197274840693
 20
-14.93719057554127
 30
0.0
 11
-2.029197274840693
 21
-14.92918970796797
 31
0.0
  0
LINE
  5
B8
330
1F
100
AcDbEntity
  8
0
  6
Continuous
 62
     7
370
    -3
100
AcDbLine
 10
-2.029197274840693
 20
-14.68919066712404
 30
0.0
 11
-2.029197274840693
 21
-14.67718995242398
 31
0.0
  0
LINE
  5
B9
330
1F
100
AcDbEntity
  8
0
  6
Continuous
 62
     7
370
    -3
100
AcDbLine
 10
-2.029029490112314
 20
-21.14318981664179
 30
0.0
 11
-2.029029490112314
 21
-20.89819126021935
 31
0.0
  0
LINE
  5
BA
330
1F
100
AcDbEntity
  8
0
  6
Continuous
 62
     7
370
    -3
100
AcDbLine
 10
-2.029029490112314
 20
-21.14318981664179
 30
0.0
 11
-2.185279311767708
 21
-21.14318981664178
 31
0.0
  0
LINE
  5
BB
330
1F
100
AcDbEntity
  8
0
  6
Continuous
 62
     7
370
    -3
100
AcDbLine
 10
-2.029029490112314
 20
-20.89819126021935
 30
0.0
 11
-2.185279311767708
 21
-20.89819126021934
 31
0.0
  0
LINE
  5
BC
330
1F
100
AcDbEntity
  8
0
  6
Continuous
 62
     7
370
    -3
100
AcDbLine
 10
-2.029029490112312
 20
-20.63819063710207
 30
0.0
 11
-2.029029490112312
 21
-20.39819042293836
 31
0.0
  0
LINE
  5
BD
330
1F
100
AcDbEntity
  8
0
  6
Continuous
 62
     7
370
    -3
100
AcDbLine
 10
-2.185279311767706
 20
-20.63819063710206
 30
0.0
 11
-2.029029490112312
 21
-20.63819063710207
 31
0.0
  0
LINE
  5
BE
330
1F
100
AcDbEntity
  8
0
  6
Continuous
 62
     7
370
    -3
100
AcDbLine
 10
-2.029029490112312
 20
-20.39819042293836
 30
0.0
 11
-2.185279311767706
 21
-20.39819042293835
 31
0.0
  0
LINE
  5
BF
330
1F
100
AcDbEntity
  8
0
  6
Continuous
 62
     7
370
    -3
100
AcDbLine
 10
-2.02902949011231
 20
-20.13818979982108
 30
0.0
 11
-2.02902949011231
 21
-19.89818958565736
 31
0.0
  0
LINE
  5
C0
330
1F
100
AcDbEntity
  8
0
  6
Continuous
 62
     7
370
    -3
100
AcDbLine
 10
-2.02902949011231
 20
-19.89818958565736
 30
0.0
 11
-2.185279311767704
 21
-19.89818958565736
 31
0.0
  0
LINE
  5
C1
330
1F
100
AcDbEntity
  8
0
  6
Continuous
 62
     7
370
    -3
100
AcDbLine
 10
-2.185279311767704
 20
-20.13818979982107
 30
0.0
 11
-2.02902949011231
 21
-20.13818979982108
 31
0.0
  0
LINE
  5
C2
330
1F
100
AcDbEntity
  8
0
  6
Continuous
 62
     7
370
    -3
100
AcDbLine
 10
-2.029029490112308
 20
-19.63819130917964
 30
0.0
 11
-2.029029490112308
 21
-19.39819109501592
 31
0.0
  0
LINE
  5
C3
330
1F
100
AcDbEntity
  8
0
  6
Continuous
 62
     7
370
    -3
100
AcDbLine
 10
-2.185279311767701
 20
-19.63819130917963
 30
0.0
 11
-2.029029490112308
 21
-19.63819130917964
 31
0.0
  0
LINE
  5
C4
330
1F
100
AcDbEntity
  8
0
  6
Continuous
 62
     7
370
    -3
100
AcDbLine
 10
-2.029029490112308
 20
-19.39819109501592
 30
0.0
 11
-2.185279311767701
 21
-19.39819109501592
 31
0.0
  0
LINE
  5
C5
330
1F
100
AcDbEntity
  8
0
  6
Continuous
 62
     7
370
    -3
100
AcDbLine
 10
-2.059197888271064
 20
-19.63819130917964
 30
0.0
 11
-2.059197888271064
 21
-19.64619100343315
 31
0.0
  0
LINE
  5
C6
330
1F
100
AcDbEntity
  8
0
  6
Continuous
 62
     7
370
    -3
100
AcDbLine
 10
-2.059197888271067
 20
-19.88619121759687
 30
0.0
 11
-2.059197888271067
 21
-19.89818958565736
 31
0.0
  0
LINE
  5
C7
330
1F
100
AcDbEntity
  8
0
  6
Continuous
 62
     7
370
    -3
100
AcDbLine
 10
-2.059197888271067
 20
-20.13818979982108
 30
0.0
 11
-2.059197888271067
 21
-20.14618949407459
 31
0.0
  0
LINE
  5
C8
330
1F
100
AcDbEntity
  8
0
  6
Continuous
 62
     7
370
    -3
100
AcDbLine
 10
-2.059197888271069
 20
-20.38618970823831
 30
0.0
 11
-2.059197888271069
 21
-20.39819042293836
 31
0.0
  0
LINE
  5
C9
330
1F
100
AcDbEntity
  8
0
  6
Continuous
 62
     7
370
    -3
100
AcDbLine
 10
-2.059197888271069
 20
-20.63819063710207
 30
0.0
 11
-2.059197888271069
 21
-20.64619033135559
 31
0.0
  0
LINE
  5
CA
330
1F
100
AcDbEntity
  8
0
  6
Continuous
 62
     7
370
    -3
100
AcDbLine
 10
-2.059197888271069
 20
-20.8861905455193
 30
0.0
 11
-2.059197888271071
 21
-20.89819126021935
 31
0.0
  0
LINE
  5
CB
330
1F
100
AcDbEntity
  8
0
  6
Continuous
 62
     7
370
    -3
100
AcDbLine
 10
-2.059866680545126
 20
-20.89819126021935
 30
0.0
 11
-2.059866680545123
 21
-20.8861905455193
 31
0.0
  0
LINE
  5
CC
330
1F
100
AcDbEntity
  8
0
  6
Continuous
 62
     7
370
    -3
100
AcDbLine
 10
-2.059866680545123
 20
-20.64619033135559
 30
0.0
 11
-2.059866680545123
 21
-20.63819063710207
 31
0.0
  0
LINE
  5
CD
330
1F
100
AcDbEntity
  8
0
  6
Continuous
 62
     7
370
    -3
100
AcDbLine
 10
-2.059866680545123
 20
-20.39819042293836
 30
0.0
 11
-2.059866680545123
 21
-20.38618970823831
 31
0.0
  0
LINE
  5
CE
330
1F
100
AcDbEntity
  8
0
  6
Continuous
 62
     7
370
    -3
100
AcDbLine
 10
-2.059866680545121
 20
-20.14618949407459
 30
0.0
 11
-2.059866680545121
 21
-20.13818979982108
 31
0.0
  0
LINE
  5
CF
330
1F
100
AcDbEntity
  8
0
  6
Continuous
 62
     7
370
    -3
100
AcDbLine
 10
-2.059866680545121
 20
-19.89818958565736
 30
0.0
 11
-2.059866680545121
 21
-19.88619121759687
 31
0.0
  0
LINE
  5
D0
330
1F
100
AcDbEntity
  8
0
  6
Continuous
 62
     7
370
    -3
100
AcDbLine
 10
-2.059866680545119
 20
-19.64619100343315
 30
0.0
 11
-2.059866680545119
 21
-19.63819130917964
 31
0.0
  0
LINE
  5
D1
330
1F
100
AcDbEntity
  8
0
  6
Continuous
 62
     7
370
    -3
100
AcDbLine
 10
-2.059866680545119
 20
-19.39819109501592
 30
0.0
 11
-2.059866680545119
 21
-19.38619038031587
 31
0.0
  0
LINE
  5
D2
330
1F
100
AcDbEntity
  8
0
  6
Continuous
 62
     7
370
    -3
100
AcDbLine
 10
-2.059197888271064
 20
-19.38619038031587
 30
0.0
 11
-2.059197888271064
 21
-19.39819109501592
 31
0.0
  0
LINE
  5
D3
330
1F
100
AcDbEntity
  8
0
  6
Continuous
 62
     7
370
    -3
100
AcDbLine
 10
-2.029197274840718
 20
-20.89819126021935
 30
0.0
 11
-2.029197274840715
 21
-20.8861905455193
 31
0.0
  0
LINE
  5
D4
330
1F
100
AcDbEntity
  8
0
  6
Continuous
 62
     7
370
    -3
100
AcDbLine
 10
-2.029197274840715
 20
-20.64619033135559
 30
0.0
 11
-2.029197274840715
 21
-20.63819063710207
 31
0.0
  0
LINE
  5
D5
330
1F
100
AcDbEntity
  8
0
  6
Continuous
 62
     7
370
    -3
100
AcDbLine
 10
-2.029197274840715
 20
-20.39819042293836
 30
0.0
 11
-2.029197274840715
 21
-20.38618970823831
 31
0.0
  0
LINE
  5
D6
330
1F
100
AcDbEntity
  8
0
  6
Continuous
 62
     7
370
    -3
100
AcDbLine
 10
-2.029197274840713
 20
-20.14618949407459
 30
0.0
 11
-2.029197274840713
 21
-20.13818979982108
 31
0.0
  0
LINE
  5
D7
330
1F
100
AcDbEntity
  8
0
  6
Continuous
 62
     7
370
    -3
100
AcDbLine
 10
-2.029197274840713
 20
-19.89818958565736
 30
0.0
 11
-2.029197274840713
 21
-19.88619121759687
 31
0.0
  0
LINE
  5
D8
330
1F
100
AcDbEntity
  8
0
  6
Continuous
 62
     7
370
    -3
100
AcDbLine
 10
-2.029197274840711
 20
-19.64619100343315
 30
0.0
 11
-2.029197274840711
 21
-19.63819130917964
 31
0.0
  0
LINE
  5
D9
330
1F
100
AcDbEntity
  8
0
  6
Continuous
 62
     7
370
    -3
100
AcDbLine
 10
-2.029197274840711
 20
-19.39819109501592
 30
0.0
 11
-2.029197274840711
 21
-19.38619038031587
 31
0.0
  0
LINE
  5
DA
330
1F
100
AcDbEntity
  8
0
  6
Continuous
 62
     7
370
    -3
100
AcDbLine
 10
-2.029029490112295
 20
-15.9371899034637
 30
0.0
 11
-2.185279311767688
 21
-15.9371899034637
 31
0.0
  0
LINE
  5
DB
330
1F
100
AcDbEntity
  8
0
  6
Continuous
 62
     7
370
    -3
100
AcDbLine
 10
-2.18527931176769
 20
-16.17719129094719
 30
0.0
 11
-2.029029490112297
 21
-16.17719129094719
 31
0.0
  0
LINE
  5
DC
330
1F
100
AcDbEntity
  8
0
  6
Continuous
 62
     7
370
    -3
100
AcDbLine
 10
-2.029029490112292
 20
-15.43719023950248
 30
0.0
 11
-2.185279311767686
 21
-15.43719023950248
 31
0.0
  0
LINE
  5
DD
330
1F
100
AcDbEntity
  8
0
  6
Continuous
 62
     7
370
    -3
100
AcDbLine
 10
-2.185279311767688
 20
-15.67719045366619
 30
0.0
 11
-2.029029490112295
 21
-15.67719045366619
 31
0.0
  0
LINE
  5
DE
330
1F
100
AcDbEntity
  8
0
  6
Continuous
 62
     7
370
    -3
100
AcDbLine
 10
-2.02902949011229
 20
-14.93719057554127
 30
0.0
 11
-2.185279311767684
 21
-14.93719057554127
 31
0.0
  0
LINE
  5
DF
330
1F
100
AcDbEntity
  8
0
  6
Continuous
 62
     7
370
    -3
100
AcDbLine
 10
-2.185279311767686
 20
-15.1771896163852
 30
0.0
 11
-2.029029490112292
 21
-15.1771896163852
 31
0.0
  0
LINE
  5
E0
330
1F
100
AcDbEntity
  8
0
  6
Continuous
 62
     7
370
    -3
100
AcDbLine
 10
-2.185279311767684
 20
-14.43219022268177
 30
0.0
 11
-2.02902949011229
 21
-14.43219022268177
 31
0.0
  0
LINE
  5
E1
330
1F
100
AcDbEntity
  8
0
  6
Continuous
 62
     7
370
    -3
100
AcDbLine
 10
-2.185279311767684
 20
-14.67718995242398
 30
0.0
 11
-2.02902949011229
 21
-14.67718995242398
 31
0.0
  0
LINE
  5
E2
330
1F
100
AcDbEntity
  8
0
  6
Continuous
 62
     7
370
    -3
100
AcDbLine
 10
-1.997279456891387
 20
-15.9371899034637
 30
0.0
 11
-1.997279456891387
 21
-15.67719045366619
 31
0.0
  0
LINE
  5
E3
330
1F
100
AcDbEntity
  8
0
  6
Continuous
 62
     7
370
    -3
100
AcDbLine
 10
-1.997279456891386
 20
-15.43719023950248
 30
0.0
 11
-1.997279456891386
 21
-15.1771896163852
 31
0.0
  0
LINE
  5
E4
330
1F
100
AcDbEntity
  8
0
  6
Continuous
 62
     7
370
    -3
100
AcDbLine
 10
-1.997279456891383
 20
-14.93719057554127
 30
0.0
 11
-1.997279456891383
 21
-14.67718995242398
 31
0.0
  0
LINE
  5
E5
330
1F
100
AcDbEntity
  8
0
  6
Continuous
 62
     7
370
    -3
100
AcDbLine
 10
-1.99727945689139
 20
-16.43219122516619
 30
0.0
 11
-1.99727945689139
 21
-16.17719129094719
 31
0.0
  0
CIRCLE
  5
E6
330
1F
100
AcDbEntity
  8
0
  6
Continuous
 62
     7
370
    -3
100
AcDbCircle
 10
-1.748279632658828
 20
-14.80719017405057
 30
0.0
 40
0.0805000000000027
  0
CIRCLE
  5
E7
330
1F
100
AcDbEntity
  8
0
  6
Continuous
 62
     7
370
    -3
100
AcDbCircle
 10
-1.748279632658832
 20
-16.05719017405055
 30
0.0
 40
0.0805000000000027
  0
LINE
  5
E8
330
1F
100
AcDbEntity
  8
0
  6
Continuous
 62
     7
370
    -3
100
AcDbLine
 10
-1.560280025146116
 20
-16.43219122516619
 30
0.0
 11
-1.99727945689139
 21
-16.43219122516619
 31
0.0
  0
LINE
  5
E9
330
1F
100
AcDbEntity
  8
0
  6
Continuous
 62
     7
370
    -3
100
AcDbLine
 10
-1.560280025146109
 20
-14.43219022268177
 30
0.0
 11
-1.560280025146116
 21
-16.43219122516619
 31
0.0
  0
LINE
  5
EA
330
1F
100
AcDbEntity
  8
0
  6
Continuous
 62
     7
370
    -3
100
AcDbLine
 10
-1.560280025146109
 20
-14.43219022268177
 30
0.0
 11
-2.02902949011229
 21
-14.43219022268177
 31
0.0
  0
LINE
  5
EB
330
1F
100
AcDbEntity
  8
0
  6
Continuous
 62
     7
370
    -3
100
AcDbLine
 10
-1.997279456891383
 20
-14.67718995242398
 30
0.0
 11
-2.02902949011229
 21
-14.67718995242398
 31
0.0
  0
LINE
  5
EC
330
1F
100
AcDbEntity
  8
0
  6
Continuous
 62
     7
370
    -3
100
AcDbLine
 10
-2.02902949011229
 20
-14.93719057554127
 30
0.0
 11
-1.997279456891383
 21
-14.93719057554127
 31
0.0
  0
LINE
  5
ED
330
1F
100
AcDbEntity
  8
0
  6
Continuous
 62
     7
370
    -3
100
AcDbLine
 10
-1.997279456891386
 20
-15.1771896163852
 30
0.0
 11
-2.029029490112292
 21
-15.1771896163852
 31
0.0
  0
LINE
  5
EE
330
1F
100
AcDbEntity
  8
0
  6
Continuous
 62
     7
370
    -3
100
AcDbLine
 10
-2.029029490112292
 20
-15.43719023950248
 30
0.0
 11
-1.997279456891386
 21
-15.43719023950248
 31
0.0
  0
LINE
  5
EF
330
1F
100
AcDbEntity
  8
0
  6
Continuous
 62
     7
370
    -3
100
AcDbLine
 10
-1.997279456891387
 20
-15.67719045366619
 30
0.0
 11
-2.029029490112295
 21
-15.67719045366619
 31
0.0
  0
LINE
  5
F0
330
1F
100
AcDbEntity
  8
0
  6
Continuous
 62
     7
370
    -3
100
AcDbLine
 10
-2.029029490112295
 20
-15.9371899034637
 30
0.0
 11
-1.997279456891387
 21
-15.9371899034637
 31
0.0
  0
LINE
  5
F1
330
1F
100
AcDbEntity
  8
0
  6
Continuous
 62
     7
370
    -3
100
AcDbLine
 10
-1.99727945689139
 20
-16.17719129094719
 30
0.0
 11
-2.029029490112297
 21
-16.17719129094719
 31
0.0
  0
LINE
  5
F2
330
1F
100
AcDbEntity
  8
0
  6
Continuous
 62
     7
370
    -3
100
AcDbLine
 10
-2.029029490112312
 20
-20.64619033135559
 30
0.0
 11
-2.185279311767706
 21
-20.64619033135558
 31
0.0
  0
LINE
  5
F3
330
1F
100
AcDbEntity
  8
0
  6
Continuous
 62
     7
370
    -3
100
AcDbLine
 10
-2.185279311767706
 20
-20.8861905455193
 30
0.0
 11
-2.029029490112312
 21
-20.8861905455193
 31
0.0
  0
LINE
  5
F4
330
1F
100
AcDbEntity
  8
0
  6
Continuous
 62
     7
370
    -3
100
AcDbLine
 10
-2.02902949011231
 20
-20.14618949407459
 30
0.0
 11
-2.185279311767704
 21
-20.14618949407459
 31
0.0
  0
LINE
  5
F5
330
1F
100
AcDbEntity
  8
0
  6
Continuous
 62
     7
370
    -3
100
AcDbLine
 10
-2.185279311767706
 20
-20.3861897082383
 30
0.0
 11
-2.029029490112312
 21
-20.38618970823831
 31
0.0
  0
LINE
  5
F6
330
1F
100
AcDbEntity
  8
0
  6
Continuous
 62
     7
370
    -3
100
AcDbLine
 10
-2.029029490112308
 20
-19.64619100343315
 30
0.0
 11
-2.185279311767701
 21
-19.64619100343315
 31
0.0
  0
LINE
  5
F7
330
1F
100
AcDbEntity
  8
0
  6
Continuous
 62
     7
370
    -3
100
AcDbLine
 10
-2.185279311767704
 20
-19.88619121759686
 30
0.0
 11
-2.02902949011231
 21
-19.88619121759687
 31
0.0
  0
LINE
  5
F8
330
1F
100
AcDbEntity
  8
0
  6
Continuous
 62
     7
370
    -3
100
AcDbLine
 10
-2.185279311767701
 20
-19.14118947725387
 30
0.0
 11
-2.029029490112308
 21
-19.14118947725388
 31
0.0
  0
LINE
  5
F9
330
1F
100
AcDbEntity
  8
0
  6
Continuous
 62
     7
370
    -3
100
AcDbLine
 10
-2.185279311767701
 20
-19.38619038031587
 30
0.0
 11
-2.029029490112308
 21
-19.38619038031587
 31
0.0
  0
LINE
  5
FA
330
1F
100
AcDbEntity
  8
0
  6
Continuous
 62
     7
370
    -3
100
AcDbLine
 10
-1.997279456891405
 20
-20.64619033135559
 30
0.0
 11
-1.997279456891405
 21
-20.38618970823831
 31
0.0
  0
LINE
  5
FB
330
1F
100
AcDbEntity
  8
0
  6
Continuous
 62
     7
370
    -3
100
AcDbLine
 10
-1.997279456891403
 20
-20.14618949407459
 30
0.0
 11
-1.997279456891403
 21
-19.88619121759687
 31
0.0
  0
LINE
  5
FC
330
1F
100
AcDbEntity
  8
0
  6
Continuous
 62
     7
370
    -3
100
AcDbLine
 10
-1.997279456891401
 20
-19.64619100343315
 30
0.0
 11
-1.997279456891401
 21
-19.38619038031587
 31
0.0
  0
LINE
  5
FD
330
1F
100
AcDbEntity
  8
0
  6
Continuous
 62
     7
370
    -3
100
AcDbLine
 10
-1.560280025146133
 20
-21.1411904797383
 30
0.0
 11
-1.997279456891407
 21
-21.1411904797383
 31
0.0
  0
LINE
  5
FE
330
1F
100
AcDbEntity
  8
0
  6
Continuous
 62
     7
370
    -3
100
AcDbLine
 10
-1.997279456891407
 20
-21.1411904797383
 30
0.0
 11
-1.997279456891405
 21
-20.8861905455193
 31
0.0
  0
CIRCLE
  5
FF
330
1F
100
AcDbEntity
  8
0
  6
Continuous
 62
     7
370
    -3
100
AcDbCircle
 10
-1.748279632658815
 20
-19.51619017405057
 30
0.0
 40
0.0805000000000027
  0
CIRCLE
  5
100
330
1F
100
AcDbEntity
  8
0
  6
Continuous
 62
     7
370
    -3
100
AcDbCircle
 10
-1.748279632658819
 20
-20.76619017405055
 30
0.0
 40
0.0805000000000005
  0
LINE
  5
101
330
1F
100
AcDbEntity
  8
0
  6
Continuous
 62
     7
370
    -3
100
AcDbLine
 10
-1.560280025146127
 20
-19.14118947725388
 30
0.0
 11
-1.560280025146133
 21
-21.1411904797383
 31
0.0
  0
LINE
  5
102
330
1F
100
AcDbEntity
  8
0
  6
Continuous
 62
     7
370
    -3
100
AcDbLine
 10
-1.560280025146127
 20
-19.14118947725388
 30
0.0
 11
-2.029029490112308
 21
-19.14118947725388
 31
0.0
  0
LINE
  5
103
330
1F
100
AcDbEntity
  8
0
  6
Continuous
 62
     7
370
    -3
100
AcDbLine
 10
-1.997279456891401
 20
-19.38619038031587
 30
0.0
 11
-2.029029490112308
 21
-19.38619038031587
 31
0.0
  0
LINE
  5
104
330
1F
100
AcDbEntity
  8
0
  6
Continuous
 62
     7
370
    -3
100
AcDbLine
 10
-2.029029490112308
 20
-19.64619100343315
 30
0.0
 11
-1.997279456891401
 21
-19.64619100343315
 31
0.0
  0
LINE
  5
105
330
1F
100
AcDbEntity
  8
0
  6
Continuous
 62
     7
370
    -3
100
AcDbLine
 10
-1.997279456891403
 20
-19.88619121759687
 30
0.0
 11
-2.02902949011231
 21
-19.88619121759687
 31
0.0
  0
LINE
  5
106
330
1F
100
AcDbEntity
  8
0
  6
Continuous
 62
     7
370
    -3
100
AcDbLine
 10
-2.02902949011231
 20
-20.14618949407459
 30
0.0
 11
-1.997279456891403
 21
-20.14618949407459
 31
0.0
  0
LINE
  5
107
330
1F
100
AcDbEntity
  8
0
  6
Continuous
 62
     7
370
    -3
100
AcDbLine
 10
-1.997279456891405
 20
-20.38618970823831
 30
0.0
 11
-2.029029490112312
 21
-20.38618970823831
 31
0.0
  0
LINE
  5
108
330
1F
100
AcDbEntity
  8
0
  6
Continuous
 62
     7
370
    -3
100
AcDbLine
 10
-2.029029490112312
 20
-20.64619033135559
 30
0.0
 11
-1.997279456891405
 21
-20.64619033135559
 31
0.0
  0
LINE
  5
109
330
1F
100
AcDbEntity
  8
0
  6
Continuous
 62
     7
370
    -3
100
AcDbLine
 10
-1.997279456891405
 20
-20.8861905455193
 30
0.0
 11
-2.029029490112312
 21
-20.8861905455193
 31
0.0
  0
LINE
  5
10A
330
1F
100
AcDbEntity
  8
0
  6
Continuous
 62
     7
370
    -3
100
AcDbLine
 10
13.94512039514511
 20
-13.86445128791712
 30
0.0
 11
13.86925089826267
 21
-13.9403204914696
 31
0.0
  0
SPLINE
  5
10B
330
1F
100
AcDbEntity
  8
0
  6
Continuous
 62
     7
370
    -3
100
AcDbSpline
210
0.0
220
0.0
230
1.0
 70
    24
 71
     1
 72
     4
 73
     2
 74
     0
 42
0.0000000001
 43
0.0000000001
 40
0.0
 40
0.0
 40
1.0
 40
1.0
 10
13.94512039514511
 20
-13.86445128791712
 30
0.0
 10
13.9461203569268
 20
-13.84497300626522
 30
0.0
  0
SPLINE
  5
10C
330
1F
100
AcDbEntity
  8
0
  6
Continuous
 62
     7
370
    -3
100
AcDbSpline
210
0.0
220
0.0
230
1.0
 70
    24
 71
     1
 72
     4
 73
     2
 74
     0
 42
0.0000000001
 43
0.0000000001
 40
0.0
 40
0.0
 40
1.0
 40
1.0
 10
13.98612036817659
 20
-13.84497300626522
 30
0.0
 10
13.9461203569268
 20
-13.84497300626522
 30
0.0
  0
SPLINE
  5
10D
330
1F
100
AcDbEntity
  8
0
  6
Continuous
 62
     7
370
    -3
100
AcDbSpline
210
0.0
220
0.0
230
1.0
 70
     8
 71
     3
 72
    11
 73
     7
 74
     0
 42
0.0000000001
 43
0.0000000001
 40
0.0
 40
0.0
 40
0.0
 40
0.0
 40
0.2500003094554826
 40
0.4999928441003923
 40
0.750005038573138
 40
1.0
 40
1.0
 40
1.0
 40
1.0
 10
13.94512039514511
 20
-13.86445128791712
 30
0.0
 10
13.95049285194349
 20
-13.86282818527383
 30
0.0
 10
13.96123759846114
 20
-13.85958203046448
 30
0.0
 10
13.97479085311994
 20
-13.85471288092854
 30
0.0
 10
13.98427114536799
 20
-13.84984211712656
 30
0.0
 10
13.98550397473712
 20
-13.84659600592595
 30
0.0
 10
13.98612036817659
 20
-13.84497300626522
 30
0.0
  0
CIRCLE
  5
10E
330
1F
100
AcDbEntity
  8
0
  6
Continuous
 62
     7
370
    -3
100
AcDbCircle
 10
12.48612036734119
 20
-14.01019017405204
 30
0.0
 40
0.0469999999963289
  0
CIRCLE
  5
10F
330
1F
100
AcDbEntity
  8
0
  6
Continuous
 62
     7
370
    -3
100
AcDbCircle
 10
-0.5138796326588129
 20
-14.01019017405218
 30
0.0
 40
0.0469999999963289
  0
LINE
  5
110
330
1F
100
AcDbEntity
  8
0
  6
Continuous
 62
     7
370
    -3
100
AcDbLine
 10
-1.880618617900682
 20
-13.830190350369
 30
0.0
 11
-1.833749186007025
 21
-13.87705978226266
 31
0.0
  0
LINE
  5
111
330
1F
100
AcDbEntity
  8
0
  6
Continuous
 62
     7
370
    -3
100
AcDbLine
 10
13.80598982239336
 20
-13.87705978226271
 30
0.0
 11
13.8528593276195
 21
-13.83019035036906
 31
0.0
  0
LINE
  5
112
330
1F
100
AcDbEntity
  8
0
  6
Continuous
 62
     7
370
    -3
100
AcDbLine
 10
13.98612036817659
 20
-14.05719018138097
 30
0.0
 11
13.98612036817659
 21
-13.84497300626522
 31
0.0
  0
SPLINE
  5
113
330
1F
100
AcDbEntity
  8
0
  6
Continuous
 62
     7
370
    -3
100
AcDbSpline
210
0.0
220
0.0
230
1.0
 70
    24
 71
     1
 72
     4
 73
     2
 74
     0
 42
0.0000000001
 43
0.0000000001
 40
0.0
 40
0.0
 40
1.0
 40
1.0
 10
-1.973879940537924
 20
-13.84497300626516
 30
0.0
 10
-1.9728790987664
 20
-13.86445128791706
 30
0.0
  0
SPLINE
  5
114
330
1F
100
AcDbEntity
  8
0
  6
Continuous
 62
     7
370
    -3
100
AcDbSpline
210
0.0
220
0.0
230
1.0
 70
     8
 71
     3
 72
    11
 73
     7
 74
     0
 42
0.0000000001
 43
0.0000000001
 40
0.0
 40
0.0
 40
0.0
 40
0.0
 40
0.2499935932318846
 40
0.5000059628042283
 40
0.7499899479318551
 40
0.9999999999999998
 40
0.9999999999999998
 40
0.9999999999999998
 40
0.9999999999999998
 10
-2.013879585125283
 20
-13.84497300626516
 30
0.0
 10
-2.013263183532849
 20
-13.84659601477705
 30
0.0
 10
-2.01203033405173
 20
-13.84984215370059
 30
0.0
 10
-2.002549771799614
 20
-13.85471274811762
 30
0.0
 10
-1.988996864525624
 20
-13.85958225733085
 30
0.0
 10
-1.978251874081052
 20
-13.86282822131275
 30
0.0
 10
-1.9728790987664
 20
-13.86445128791706
 30
0.0
  0
SPLINE
  5
115
330
1F
100
AcDbEntity
  8
0
  6
Continuous
 62
     7
370
    -3
100
AcDbSpline
210
0.0
220
0.0
230
1.0
 70
    24
 71
     1
 72
     4
 73
     2
 74
     0
 42
0.0000000001
 43
0.0000000001
 40
0.0
 40
0.0
 40
1.0
 40
1.0
 10
-1.973879940537924
 20
-13.84497300626516
 30
0.0
 10
-2.013879585125283
 20
-13.84497300626516
 30
0.0
  0
LINE
  5
116
330
1F
100
AcDbEntity
  8
0
  6
Continuous
 62
     7
370
    -3
100
AcDbLine
 10
-1.897009895213914
 20
-13.94032049146954
 30
0.0
 11
-1.9728790987664
 21
-13.86445128791706
 31
0.0
  0
LINE
  5
117
330
1F
100
AcDbEntity
  8
0
  6
Continuous
 62
     7
370
    -3
100
AcDbLine
 10
-2.013879585125283
 20
-13.84497300626516
 30
0.0
 11
-2.013879585125283
 21
-14.05719018138091
 31
0.0
  0
LINE
  5
118
330
1F
100
AcDbEntity
  8
0
  6
Continuous
 62
     7
370
    -3
100
AcDbLine
 10
-2.013879585125283
 20
-13.84497300626516
 30
0.0
 11
-2.013879585125283
 21
-13.830190350369
 31
0.0
  0
LINE
  5
119
330
1F
100
AcDbEntity
  8
0
  6
Continuous
 62
     7
370
    -3
100
AcDbLine
 10
-1.973879940537924
 20
-13.84497300626516
 30
0.0
 11
-1.973879940537924
 21
-13.830190350369
 31
0.0
  0
LINE
  5
11A
330
1F
100
AcDbEntity
  8
0
  6
Continuous
 62
     7
370
    -3
100
AcDbLine
 10
13.9461203569268
 20
-13.83019035036906
 30
0.0
 11
13.9461203569268
 21
-13.84497300626522
 31
0.0
  0
LINE
  5
11B
330
1F
100
AcDbEntity
  8
0
  6
Continuous
 62
     7
370
    -3
100
AcDbLine
 10
13.98612036817659
 20
-13.83019035036906
 30
0.0
 11
13.98612036817659
 21
-13.84497300626522
 31
0.0
  0
LINE
  5
11C
330
1F
100
AcDbEntity
  8
0
  6
Continuous
 62
     7
370
    -3
100
AcDbLine
 10
-2.013879585125311
 20
-21.76618976635987
 30
0.0
 11
13.98612036817656
 21
-21.76618976635993
 31
0.0
  0
LINE
  5
11D
330
1F
100
AcDbEntity
  8
0
  6
Continuous
 62
     7
370
    -3
100
AcDbLine
 10
-2.013879585125283
 20
-14.05719018138091
 30
0.0
 11
-2.013879585125285
 21
-14.43219022268177
 31
0.0
  0
LINE
  5
11E
330
1F
100
AcDbEntity
  8
0
  6
Continuous
 62
     7
370
    -3
100
AcDbLine
 10
-2.013879585125285
 20
-14.67718995242398
 30
0.0
 11
-2.013879585125285
 21
-14.93719057554127
 31
0.0
  0
LINE
  5
11F
330
1F
100
AcDbEntity
  8
0
  6
Continuous
 62
     7
370
    -3
100
AcDbLine
 10
-2.013879585125287
 20
-15.1771896163852
 30
0.0
 11
-2.013879585125287
 21
-15.43719023950248
 31
0.0
  0
LINE
  5
120
330
1F
100
AcDbEntity
  8
0
  6
Continuous
 62
     7
370
    -3
100
AcDbLine
 10
-2.01387958512529
 20
-15.67719045366619
 30
0.0
 11
-2.01387958512529
 21
-15.9371899034637
 31
0.0
  0
LINE
  5
121
330
1F
100
AcDbEntity
  8
0
  6
Continuous
 62
     7
370
    -3
100
AcDbLine
 10
-2.013879585125292
 20
-16.17719129094719
 30
0.0
 11
-2.013879585125303
 21
-19.14118947725388
 31
0.0
  0
LINE
  5
122
330
1F
100
AcDbEntity
  8
0
  6
Continuous
 62
     7
370
    -3
100
AcDbLine
 10
-2.013879585125303
 20
-19.38619038031587
 30
0.0
 11
-2.013879585125303
 21
-19.64619100343315
 31
0.0
  0
LINE
  5
123
330
1F
100
AcDbEntity
  8
0
  6
Continuous
 62
     7
370
    -3
100
AcDbLine
 10
-2.013879585125305
 20
-19.88619121759687
 30
0.0
 11
-2.013879585125305
 21
-20.14618949407459
 31
0.0
  0
LINE
  5
124
330
1F
100
AcDbEntity
  8
0
  6
Continuous
 62
     7
370
    -3
100
AcDbLine
 10
-2.013879585125307
 20
-20.38618970823831
 30
0.0
 11
-2.013879585125307
 21
-20.64619033135559
 31
0.0
  0
LINE
  5
125
330
1F
100
AcDbEntity
  8
0
  6
Continuous
 62
     7
370
    -3
100
AcDbLine
 10
-2.013879585125307
 20
-20.8861905455193
 30
0.0
 11
-2.013879585125311
 21
-21.76618976635987
 31
0.0
  0
LINE
  5
126
330
1F
100
AcDbEntity
  8
0
  6
Continuous
 62
     7
370
    -3
100
AcDbLine
 10
-1.786879754113368
 20
-13.830190350369
 30
0.0
 11
-2.013879585125283
 21
-14.05719018138091
 31
0.0
  0
LINE
  5
127
330
1F
100
AcDbEntity
  8
0
  6
Continuous
 62
     7
370
    -3
100
AcDbLine
 10
13.98612036817659
 20
-14.05719018138097
 30
0.0
 11
13.7591203904997
 21
-13.83019035036906
 31
0.0
  0
LINE
  5
128
330
1F
100
AcDbEntity
  8
0
  6
Continuous
 62
     7
370
    -3
100
AcDbLine
 10
13.98612036817659
 20
-14.05719018138097
 30
0.0
 11
13.98612036817656
 21
-21.76618976635993
 31
0.0
  0
LINE
  5
129
330
1F
100
AcDbEntity
  8
0
  6
Continuous
 62
     7
370
    -3
100
AcDbLine
 10
12.46862028513369
 20
-17.70217847416517
 30
0.0
 11
12.46862028513369
 21
-17.62217683835089
 31
0.0
  0
LINE
  5
12A
330
1F
100
AcDbEntity
  8
0
  6
Continuous
 62
     7
370
    -3
100
AcDbLine
 10
12.46862028513369
 20
-17.62217683835089
 30
0.0
 11
12.34362036914339
 21
-17.62217683835089
 31
0.0
  0
LINE
  5
12B
330
1F
100
AcDbEntity
  8
0
  6
Continuous
 62
     7
370
    -3
100
AcDbLine
 10
12.34362036914339
 20
-17.62217683835089
 30
0.0
 11
12.34362036914339
 21
-17.70217847416517
 31
0.0
  0
ARC
  5
12C
330
1F
100
AcDbEntity
  8
0
  6
Continuous
 62
     7
370
    -3
100
AcDbCircle
 10
12.40612036734119
 20
-18.13519017405043
 30
0.0
 40
0.4375000000000053
100
AcDbArc
 50
98.21321070173857
 51
261.7867892982626
  0
LINE
  5
12D
330
1F
100
AcDbEntity
  8
0
  6
Continuous
 62
     7
370
    -3
100
AcDbLine
 10
12.34362036914339
 20
-18.56820345643734
 30
0.0
 11
12.34362036914339
 21
-18.64820274561206
 31
0.0
  0
LINE
  5
12E
330
1F
100
AcDbEntity
  8
0
  6
Continuous
 62
     7
370
    -3
100
AcDbLine
 10
12.34362036914339
 20
-18.64820274561206
 30
0.0
 11
12.46862028513369
 21
-18.64820274561206
 31
0.0
  0
LINE
  5
12F
330
1F
100
AcDbEntity
  8
0
  6
Continuous
 62
     7
370
    -3
100
AcDbLine
 10
12.46862028513369
 20
-18.64820274561206
 30
0.0
 11
12.46862028513369
 21
-18.56820345643734
 31
0.0
  0
ARC
  5
130
330
1F
100
AcDbEntity
  8
0
  6
Continuous
 62
     7
370
    -3
100
AcDbCircle
 10
12.40612036734119
 20
-18.13519017405043
 30
0.0
 40
0.4375000000000045
100
AcDbArc
 50
278.2132107017386
 51
81.78678929826194
  0
ARC
  5
131
330
1F
100
AcDbEntity
  8
0
  6
Continuous
 62
     7
370
    -3
100
AcDbCircle
 10
12.42362036734117
 20
-14.02719017405044
 30
0.0
 40
0.0939999999999994
100
AcDbArc
 50
89.99999999999785
 51
270.0000000000029
  0
LINE
  5
132
330
1F
100
AcDbEntity
  8
0
  6
Continuous
 62
     7
370
    -3
100
AcDbLine
 10
12.42362024497801
 20
-14.12119008204865
 30
0.0
 11
12.54862045429826
 21
-14.12119008204865
 31
0.0
  0
ARC
  5
133
330
1F
100
AcDbEntity
  8
0
  6
Continuous
 62
     7
370
    -3
100
AcDbCircle
 10
12.54862036734117
 20
-14.02719017405043
 30
0.0
 40
0.094000000000003
100
AcDbArc
 50
270.0000000000029
 51
89.99999999999785
  0
LINE
  5
134
330
1F
100
AcDbEntity
  8
0
  6
Continuous
 62
     7
370
    -3
100
AcDbLine
 10
12.54862045429826
 20
-13.93319022717235
 30
0.0
 11
12.42362024497801
 21
-13.93319022717235
 31
0.0
  0
ARC
  5
135
330
1F
100
AcDbEntity
  8
0
  6
Continuous
 62
     7
370
    -3
100
AcDbCircle
 10
-0.5763796326588158
 20
-14.02719017405047
 30
0.0
 40
0.094000000000003
100
AcDbArc
 50
90.00000000000271
 51
269.9999999999981
  0
LINE
  5
136
330
1F
100
AcDbEntity
  8
0
  6
Continuous
 62
     7
370
    -3
100
AcDbLine
 10
-0.5763798179119278
 20
-14.1211900820486
 30
0.0
 11
-0.4513801952515688
 21
-14.1211900820486
 31
0.0
  0
ARC
  5
137
330
1F
100
AcDbEntity
  8
0
  6
Continuous
 62
     7
370
    -3
100
AcDbCircle
 10
-0.4513796326588186
 20
-14.02719017405048
 30
0.0
 40
0.0939999999999994
100
AcDbArc
 50
270.0000000000008
 51
90.0
  0
LINE
  5
138
330
1F
100
AcDbEntity
  8
0
  6
Continuous
 62
     7
370
    -3
100
AcDbLine
 10
-0.4513801952515688
 20
-13.9331902271723
 30
0.0
 11
-0.5763798179119278
 21
-13.9331902271723
 31
0.0
  0
LINE
  5
139
330
1F
100
AcDbEntity
  8
0
  6
Continuous
 62
     7
370
    -3
100
AcDbLine
 10
-2.013879585125311
 20
-21.80719025271875
 30
0.0
 11
13.98612036817656
 21
-21.80719025271881
 31
0.0
  0
LINE
  5
13A
330
1F
100
AcDbEntity
  8
0
  6
Continuous
 62
     7
370
    -3
100
AcDbLine
 10
-2.013879585125311
 20
-21.76618976635987
 30
0.0
 11
-2.013879585125311
 21
-21.80719025271875
 31
0.0
  0
LINE
  5
13B
330
1F
100
AcDbEntity
  8
0
  6
Continuous
 62
     7
370
    -3
100
AcDbLine
 10
13.98612036817656
 20
-21.76618976635993
 30
0.0
 11
13.98612036817656
 21
-21.80719025271881
 31
0.0
  0
LINE
  5
13C
330
1F
100
AcDbEntity
  8
0
  6
Continuous
 62
     7
370
    -3
100
AcDbLine
 10
13.90817035532845
 20
-13.84519007042434
 30
0.0
 11
13.86817034407866
 21
-13.84519007042434
 31
0.0
  0
LINE
  5
13D
330
1F
100
AcDbEntity
  8
0
  6
Continuous
 62
     7
370
    -3
100
AcDbLine
 10
13.86817034407866
 20
-13.9392398639531
 30
0.0
 11
13.86817034407866
 21
-13.84519007042434
 31
0.0
  0
LINE
  5
13E
330
1F
100
AcDbEntity
  8
0
  6
Continuous
 62
     7
370
    -3
100
AcDbLine
 10
13.90817035532845
 20
-13.90140147439874
 30
0.0
 11
13.90817035532845
 21
-13.84519007042434
 31
0.0
  0
LINE
  5
13F
330
1F
100
AcDbEntity
  8
0
  6
Continuous
 62
     7
370
    -3
100
AcDbLine
 10
-1.935930085604553
 20
-13.84519007042428
 30
0.0
 11
-1.895929267697415
 21
-13.84519007042428
 31
0.0
  0
LINE
  5
140
330
1F
100
AcDbEntity
  8
0
  6
Continuous
 62
     7
370
    -3
100
AcDbLine
 10
-1.895929267697415
 20
-13.84519007042428
 30
0.0
 11
-1.895929267697415
 21
-13.93923986395305
 31
0.0
  0
LINE
  5
141
330
1F
100
AcDbEntity
  8
0
  6
Continuous
 62
     7
370
    -3
100
AcDbLine
 10
-1.935930085604553
 20
-13.84519007042428
 30
0.0
 11
-1.935930085604553
 21
-13.90140147439868
 31
0.0
  0
LINE
  5
142
330
1F
100
AcDbEntity
  8
0
  6
Continuous
 62
     7
370
    -3
100
AcDbLine
 10
19.41012030966644
 20
-5.419190021629278
 30
0.0
 11
19.41012030966644
 21
-5.459190252876527
 31
0.0
  0
LINE
  5
143
330
1F
100
AcDbEntity
  8
0
  6
Continuous
 62
     7
370
    -3
100
AcDbLine
 10
19.41012030966644
 20
-5.459190252876527
 30
0.0
 11
15.17112037145546
 21
-5.459190252876509
 31
0.0
  0
LINE
  5
144
330
1F
100
AcDbEntity
  8
0
  6
Continuous
 62
     7
370
    -3
100
AcDbLine
 10
19.41012030966644
 20
-5.419190021629278
 30
0.0
 11
15.17112037145546
 21
-5.41919002162926
 31
0.0
  0
LINE
  5
145
330
1F
100
AcDbEntity
  8
0
  6
Continuous
 62
     7
370
    -3
100
AcDbLine
 10
20.16012009893822
 20
-5.481690419619347
 30
0.0
 11
20.16012009893821
 21
-6.616429097687978
 31
0.0
  0
LINE
  5
146
330
1F
100
AcDbEntity
  8
0
  6
Continuous
 62
     7
370
    -3
100
AcDbLine
 10
20.16012009893821
 20
-6.616429097687978
 30
0.0
 11
20.12012045435085
 21
-6.616429097687978
 31
0.0
  0
LINE
  5
147
330
1F
100
AcDbEntity
  8
0
  6
Continuous
 62
     7
370
    -3
100
AcDbLine
 10
20.12012045435085
 20
-5.481690419619347
 30
0.0
 11
20.16012009893822
 21
-5.481690419619347
 31
0.0
  0
LINE
  5
148
330
1F
100
AcDbEntity
  8
0
  6
Continuous
 62
     7
370
    -3
100
AcDbLine
 10
20.12012045435085
 20
-5.481690419619347
 30
0.0
 11
20.12012045435085
 21
-6.616429097687978
 31
0.0
  0
LINE
  5
149
330
1F
100
AcDbEntity
  8
0
  6
Continuous
 62
     7
370
    -3
100
AcDbLine
 10
19.41012030966644
 20
-5.459190252876524
 30
0.0
 11
19.41012030966644
 21
-5.460189921328269
 31
0.0
  0
LINE
  5
14A
330
1F
100
AcDbEntity
  8
0
  6
Continuous
 62
     7
370
    -3
100
AcDbLine
 10
20.12012045435085
 20
-6.616429097687976
 30
0.0
 11
20.11912019923922
 21
-6.616429097687976
 31
0.0
  0
LINE
  5
14B
330
1F
100
AcDbEntity
  8
0
  6
Continuous
 62
     7
370
    -3
100
AcDbLine
 10
20.11912019923922
 20
-6.616429097687976
 30
0.0
 11
20.11912019923922
 21
-5.481690419619347
 31
0.0
  0
LINE
  5
14C
330
1F
100
AcDbEntity
  8
0
  6
Continuous
 62
     7
370
    -3
100
AcDbLine
 10
20.11912019923922
 20
-5.481690419619347
 30
0.0
 11
20.12012045435085
 21
-5.481690419619347
 31
0.0
  0
LINE
  5
14D
330
1F
100
AcDbEntity
  8
0
  6
Continuous
 62
     7
370
    -3
100
AcDbLine
 10
15.17112037145546
 20
-6.710190254551071
 30
0.0
 11
20.11912019923922
 21
-6.710190254551091
 31
0.0
  0
LINE
  5
14E
330
1F
100
AcDbEntity
  8
0
  6
Continuous
 62
     7
370
    -3
100
AcDbLine
 10
20.11912019923922
 20
-6.669189768192208
 30
0.0
 11
20.11912019923922
 21
-6.710190254551091
 31
0.0
  0
LINE
  5
14F
330
1F
100
AcDbEntity
  8
0
  6
Continuous
 62
     7
370
    -3
100
AcDbLine
 10
20.11912019923922
 20
-6.669189768192208
 30
0.0
 11
20.11912019923922
 21
-6.616429097687976
 31
0.0
  0
LINE
  5
150
330
1F
100
AcDbEntity
  8
0
  6
Continuous
 62
     7
370
    -3
100
AcDbLine
 10
19.41012030966644
 20
-5.481690419619345
 30
0.0
 11
19.41012030966644
 21
-5.460189921328269
 31
0.0
  0
LINE
  5
151
330
1F
100
AcDbEntity
  8
0
  6
Continuous
 62
     7
370
    -3
100
AcDbLine
 10
19.41012030966644
 20
-5.481690419619345
 30
0.0
 11
20.11912019923922
 21
-5.481690419619347
 31
0.0
  0
LINE
  5
152
330
1F
100
AcDbEntity
  8
0
  6
Continuous
 62
     7
370
    -3
100
AcDbLine
 10
20.16012009893821
 20
-6.711189923002836
 30
0.0
 11
20.16012009893821
 21
-7.045190651264588
 31
0.0
  0
LINE
  5
153
330
1F
100
AcDbEntity
  8
0
  6
Continuous
 62
     7
370
    -3
100
AcDbLine
 10
20.12012045435085
 20
-6.711189923002836
 30
0.0
 11
20.16012009893821
 21
-6.711189923002836
 31
0.0
  0
LINE
  5
154
330
1F
100
AcDbEntity
  8
0
  6
Continuous
 62
     7
370
    -3
100
AcDbLine
 10
20.16012009893821
 20
-7.045190651264588
 30
0.0
 11
20.12012045435085
 21
-7.045190651264588
 31
0.0
  0
LINE
  5
155
330
1F
100
AcDbEntity
  8
0
  6
Continuous
 62
     7
370
    -3
100
AcDbLine
 10
20.12012045435085
 20
-6.711189923002836
 30
0.0
 11
20.12012045435085
 21
-7.045190651264588
 31
0.0
  0
ARC
  5
156
330
1F
100
AcDbEntity
  8
0
  6
Continuous
 62
     7
370
    -3
100
AcDbCircle
 10
20.11912036734123
 20
-6.71119017583198
 30
0.0
 40
0.0410000034780547
100
AcDbArc
 50
0.0000024302228902
 51
90.0
  0
ARC
  5
157
330
1F
100
AcDbEntity
  8
0
  6
Continuous
 62
     7
370
    -3
100
AcDbCircle
 10
20.11912036734123
 20
-6.711190174092953
 30
0.0
 40
0.001000001739027
100
AcDbArc
 50
0.0
 51
90.0
  0
LINE
  5
158
330
1F
100
AcDbEntity
  8
0
  6
Continuous
 62
     7
370
    -3
100
AcDbLine
 10
29.40072615066856
 20
-8.338190221089934
 30
0.0
 11
29.40072615066857
 21
-5.438190175471261
 31
0.0
  0
LINE
  5
159
330
1F
100
AcDbEntity
  8
0
  6
Continuous
 62
     7
370
    -3
100
AcDbLine
 10
20.23151426085342
 20
-8.338190221089901
 30
0.0
 11
29.40072615066856
 21
-8.338190221089934
 31
0.0
  0
LINE
  5
15A
330
1F
100
AcDbEntity
  8
0
  6
Continuous
 62
     7
370
    -3
100
AcDbLine
 10
20.23151426085342
 20
-8.338190221089901
 30
0.0
 11
20.23151426085343
 21
-5.438190175471228
 31
0.0
  0
LINE
  5
15B
330
1F
100
AcDbEntity
  8
0
  6
Continuous
 62
     7
370
    -3
100
AcDbLine
 10
22.29401390134825
 20
-5.438190175471235
 30
0.0
 11
20.23151426085343
 21
-5.438190175471228
 31
0.0
  0
LINE
  5
15C
330
1F
100
AcDbEntity
  8
0
  6
Continuous
 62
     7
370
    -3
100
AcDbLine
 10
22.29401390134825
 20
-5.438190175471235
 30
0.0
 11
22.9190143612896
 21
-5.438190175471237
 31
0.0
  0
LINE
  5
15D
330
1F
100
AcDbEntity
  8
0
  6
Continuous
 62
     7
370
    -3
100
AcDbLine
 10
23.29401381593057
 20
-5.438190175471239
 30
0.0
 11
22.9190143612896
 21
-5.438190175471237
 31
0.0
  0
LINE
  5
15E
330
1F
100
AcDbEntity
  8
0
  6
Continuous
 62
     7
370
    -3
100
AcDbLine
 10
23.29401381593057
 20
-5.438190175471239
 30
0.0
 11
23.91901427587192
 21
-5.438190175471241
 31
0.0
  0
LINE
  5
15F
330
1F
100
AcDbEntity
  8
0
  6
Continuous
 62
     7
370
    -3
100
AcDbLine
 10
29.40072615066857
 20
-5.438190175471261
 30
0.0
 11
23.91901427587192
 21
-5.438190175471241
 31
0.0
  0
SPLINE
  5
160
330
1F
100
AcDbEntity
  8
0
  6
Continuous
 62
     7
370
    -3
100
AcDbSpline
210
0.0
220
0.0
230
1.0
 70
     8
 71
     3
 72
    11
 73
     7
 74
     0
 42
0.0000000001
 43
0.0000000001
 40
0.0
 40
0.0
 40
0.0
 40
0.0
 40
0.2500039324159816
 40
0.4999982418001485
 40
0.75000077973234
 40
1.0
 40
1.0
 40
1.0
 40
1.0
 10
29.39112018163754
 20
-8.388190070154077
 30
0.0
 10
29.39192077349091
 20
-8.38743837847136
 30
0.0
 10
29.39352192638164
 20
-8.38593502403968
 30
0.0
 10
29.39592372682369
 20
-8.374373252064826
 30
0.0
 10
29.39832582622818
 20
-8.357846306500626
 30
0.0
 10
29.39992604606109
 20
-8.344742220576957
 30
0.0
 10
29.40072615066856
 20
-8.338190221089934
 30
0.0
  0
LINE
  5
161
330
1F
100
AcDbEntity
  8
0
  6
Continuous
 62
     7
370
    -3
100
AcDbLine
 10
29.39112018163754
 20
-8.388190070154077
 30
0.0
 11
20.24112022988444
 21
-8.388190070154045
 31
0.0
  0
SPLINE
  5
162
330
1F
100
AcDbEntity
  8
0
  6
Continuous
 62
     7
370
    -3
100
AcDbSpline
210
0.0
220
0.0
230
1.0
 70
     8
 71
     3
 72
    11
 73
     7
 74
     0
 42
0.0000000001
 43
0.0000000001
 40
0.0
 40
0.0
 40
0.0
 40
0.0
 40
0.2500001316910217
 40
0.5000026696754225
 40
0.7499969791117966
 40
1.0
 40
1.0
 40
1.0
 40
1.0
 10
20.23151426085342
 20
-8.338190221089901
 30
0.0
 10
20.23231461605228
 20
-8.344742215261499
 30
0.0
 10
20.23391533415356
 20
-8.357846266668746
 30
0.0
 10
20.23631718880174
 20
-8.374373257502078
 30
0.0
 10
20.23871923398999
 20
-8.385935007986034
 30
0.0
 10
20.24031988862355
 20
-8.387438374033663
 30
0.0
 10
20.24112022988444
 20
-8.388190070154045
 30
0.0
  0
LINE
  5
163
330
1F
100
AcDbEntity
  8
0
  6
Continuous
 62
     7
370
    -3
100
AcDbLine
 10
23.91901427587192
 20
-5.388190326407097
 30
0.0
 11
23.91901427587192
 21
-5.438190175471241
 31
0.0
  0
LINE
  5
164
330
1F
100
AcDbEntity
  8
0
  6
Continuous
 62
     7
370
    -3
100
AcDbLine
 10
29.40072615066857
 20
-5.438190175471261
 30
0.0
 11
29.40072615066857
 21
-5.388190326407118
 31
0.0
  0
LINE
  5
165
330
1F
100
AcDbEntity
  8
0
  6
Continuous
 62
     7
370
    -3
100
AcDbLine
 10
22.9190143612896
 20
-5.388190326407093
 30
0.0
 11
22.9190143612896
 21
-5.438190175471237
 31
0.0
  0
LINE
  5
166
330
1F
100
AcDbEntity
  8
0
  6
Continuous
 62
     7
370
    -3
100
AcDbLine
 10
23.29401381593057
 20
-5.438190175471239
 30
0.0
 11
23.29401381593057
 21
-5.388190326407095
 31
0.0
  0
LINE
  5
167
330
1F
100
AcDbEntity
  8
0
  6
Continuous
 62
     7
370
    -3
100
AcDbLine
 10
20.23151426085343
 20
-5.388190326407085
 30
0.0
 11
20.23151426085343
 21
-5.438190175471228
 31
0.0
  0
LINE
  5
168
330
1F
100
AcDbEntity
  8
0
  6
Continuous
 62
     7
370
    -3
100
AcDbLine
 10
22.29401390134825
 20
-5.438190175471235
 30
0.0
 11
22.29401390134825
 21
-5.388190326407091
 31
0.0
  0
LINE
  5
169
330
1F
100
AcDbEntity
  8
0
  6
Continuous
 62
     7
370
    -3
100
AcDbLine
 10
29.44112003070168
 20
-8.338190221089934
 30
0.0
 11
29.44112003070169
 21
-5.438190175471261
 31
0.0
  0
SPLINE
  5
16A
330
1F
100
AcDbEntity
  8
0
  6
Continuous
 62
     7
370
    -3
100
AcDbSpline
210
0.0
220
0.0
230
1.0
 70
    24
 71
     1
 72
     4
 73
     2
 74
     0
 42
0.0000000001
 43
0.0000000001
 40
0.0
 40
0.0
 40
1.0
 40
1.0
 10
29.40112038611432
 20
-8.338190221089934
 30
0.0
 10
29.44112003070168
 20
-8.338190221089934
 30
0.0
  0
LINE
  5
16B
330
1F
100
AcDbEntity
  8
0
  6
Continuous
 62
     7
370
    -3
100
AcDbLine
 10
29.40112038611432
 20
-8.338190221089934
 30
0.0
 11
29.40112038611433
 21
-5.438190175471261
 31
0.0
  0
LINE
  5
16C
330
1F
100
AcDbEntity
  8
0
  6
Continuous
 62
     7
370
    -3
100
AcDbLine
 10
29.44112003070169
 20
-5.438190175471261
 30
0.0
 11
29.40112038611433
 21
-5.438190175471261
 31
0.0
  0
LINE
  5
16D
330
1F
100
AcDbEntity
  8
0
  6
Continuous
 62
     7
370
    -3
100
AcDbLine
 10
20.23112061206755
 20
-8.338190221089901
 30
0.0
 11
20.23112061206756
 21
-5.438190175471228
 31
0.0
  0
SPLINE
  5
16E
330
1F
100
AcDbEntity
  8
0
  6
Continuous
 62
     7
370
    -3
100
AcDbSpline
210
0.0
220
0.0
230
1.0
 70
    24
 71
     1
 72
     4
 73
     2
 74
     0
 42
0.0000000001
 43
0.0000000001
 40
0.0
 40
0.0
 40
1.0
 40
1.0
 10
20.23112061206755
 20
-8.338190221089901
 30
0.0
 10
20.1911203808203
 20
-8.338190221089901
 30
0.0
  0
LINE
  5
16F
330
1F
100
AcDbEntity
  8
0
  6
Continuous
 62
     7
370
    -3
100
AcDbLine
 10
20.1911203808203
 20
-8.338190221089901
 30
0.0
 11
20.19112038082031
 21
-5.438190175471226
 31
0.0
  0
LINE
  5
170
330
1F
100
AcDbEntity
  8
0
  6
Continuous
 62
     7
370
    -3
100
AcDbLine
 10
20.19112038082031
 20
-5.438190175471226
 30
0.0
 11
20.23112061206756
 21
-5.438190175471228
 31
0.0
  0
SPLINE
  5
171
330
1F
100
AcDbEntity
  8
0
  6
Continuous
 62
     7
370
    -3
100
AcDbSpline
210
0.0
220
0.0
230
1.0
 70
     8
 71
     3
 72
    11
 73
     7
 74
     0
 42
0.0000000001
 43
0.0000000001
 40
0.0
 40
0.0
 40
0.0
 40
0.0
 40
0.2500048115328266
 40
0.5
 40
0.7499951884671735
 40
1.0
 40
1.0
 40
1.0
 40
1.0
 10
29.44112003070168
 20
-8.338190221089934
 30
0.0
 10
29.44036831952514
 20
-8.344742136578936
 30
0.0
 10
29.43886492610656
 20
-8.357845715363742
 30
0.0
 10
29.42730357337346
 20
-8.374373612825854
 30
0.0
 10
29.41077567591134
 20
-8.385934965558965
 30
0.0
 10
29.39767209712654
 20
-8.387438358977536
 30
0.0
 10
29.39112018163754
 20
-8.388190070154077
 30
0.0
  0
SPLINE
  5
172
330
1F
100
AcDbEntity
  8
0
  6
Continuous
 62
     7
370
    -3
100
AcDbSpline
210
0.0
220
0.0
230
1.0
 70
     8
 71
     3
 72
    11
 73
     7
 74
     0
 42
0.0000000001
 43
0.0000000001
 40
0.0
 40
0.0
 40
0.0
 40
0.0
 40
0.2499983355363402
 40
0.4999943112509269
 40
0.7499944011894565
 40
1.0
 40
1.0
 40
1.0
 40
1.0
 10
20.24112022988444
 20
-8.388190070154045
 30
0.0
 10
20.23456850706318
 20
-8.387438335723693
 30
0.0
 10
20.22146512326465
 20
-8.385934873958882
 30
0.0
 10
20.20493749038384
 20
-8.374373447490183
 30
0.0
 10
20.19337537281519
 20
-8.35784590771084
 30
0.0
 10
20.19187205033961
 20
-8.344742164754231
 30
0.0
 10
20.1911203808203
 20
-8.338190221089901
 30
0.0
  0
ARC
  5
173
330
1F
100
AcDbEntity
  8
0
  6
Continuous
 62
     7
370
    -3
100
AcDbCircle
 10
29.45112036730627
 20
-5.438190174092971
 30
0.0
 40
0.0099999999650002
100
AcDbArc
 50
89.99999979945711
 51
179.9999999999745
  0
ARC
  5
174
330
1F
100
AcDbEntity
  8
0
  6
Continuous
 62
     7
370
    -3
100
AcDbCircle
 10
29.45112036734127
 20
-5.438190174092971
 30
0.0
 40
0.0500000000000043
100
AcDbArc
 50
90.0
 51
179.9999999999945
  0
LINE
  5
175
330
1F
100
AcDbEntity
  8
0
  6
Continuous
 62
     7
370
    -3
100
AcDbLine
 10
29.45112023517848
 20
-5.428189970994476
 30
0.0
 11
29.45112023517848
 21
-5.388190326407118
 31
0.0
  0
LINE
  5
176
330
1F
100
AcDbEntity
  8
0
  6
Continuous
 62
     7
370
    -3
100
AcDbLine
 10
19.4811202361359
 20
-5.38819032640708
 30
0.0
 11
19.4811202361359
 21
-5.428189970994439
 31
0.0
  0
LINE
  5
177
330
1F
100
AcDbEntity
  8
0
  6
Continuous
 62
     7
370
    -3
100
AcDbLine
 10
20.18112017634352
 20
-5.428189970994441
 30
0.0
 11
20.18112017634352
 21
-5.388190326407082
 31
0.0
  0
LINE
  5
178
330
1F
100
AcDbEntity
  8
0
  6
Continuous
 62
     7
370
    -3
100
AcDbLine
 10
20.18112017634352
 20
-5.428189970994441
 30
0.0
 11
19.4811202361359
 21
-5.428189970994439
 31
0.0
  0
LINE
  5
179
330
1F
100
AcDbEntity
  8
0
  6
Continuous
 62
     7
370
    -3
100
AcDbLine
 10
30.14112026423926
 20
-5.388190326407119
 30
0.0
 11
30.14112026423926
 21
-5.428189970994479
 31
0.0
  0
LINE
  5
17A
330
1F
100
AcDbEntity
  8
0
  6
Continuous
 62
     7
370
    -3
100
AcDbLine
 10
29.45112023517848
 20
-5.428189970994476
 30
0.0
 11
30.14112026423926
 21
-5.428189970994479
 31
0.0
  0
ARC
  5
17B
330
1F
100
AcDbEntity
  8
0
  6
Continuous
 62
     7
370
    -3
100
AcDbCircle
 10
20.18112036737626
 20
-5.438190174092958
 30
0.0
 40
0.0099999999999962
100
AcDbArc
 50
0.0
 51
90.00000020056324
  0
ARC
  5
17C
330
1F
100
AcDbEntity
  8
0
  6
Continuous
 62
     7
370
    -3
100
AcDbCircle
 10
20.18112036734126
 20
-5.438190174092958
 30
0.0
 40
0.0500000000000007
100
AcDbArc
 50
0.0
 51
90.00000000000406
  0
LINE
  5
17D
330
1F
100
AcDbEntity
  8
0
  6
Continuous
 62
     7
370
    -3
100
AcDbLine
 10
31.45262074034051
 20
-5.388190326407124
 30
0.0
 11
31.45262074034051
 21
-5.344190248033117
 31
0.0
  0
LINE
  5
17E
330
1F
100
AcDbEntity
  8
0
  6
Continuous
 62
     7
370
    -3
100
AcDbLine
 10
15.17112037145546
 20
-5.388190326407064
 30
0.0
 11
31.45262074034051
 21
-5.388190326407124
 31
0.0
  0
LINE
  5
17F
330
1F
100
AcDbEntity
  8
0
  6
Continuous
 62
     7
370
    -3
100
AcDbLine
 10
15.17112037145546
 20
-4.638190243805352
 30
0.0
 11
31.45262074034051
 21
-4.638190243805412
 31
0.0
  0
LINE
  5
180
330
1F
100
AcDbEntity
  8
0
  6
Continuous
 62
     7
370
    -3
100
AcDbLine
 10
31.45262074034051
 20
-4.638190243805412
 30
0.0
 11
31.45262074034051
 21
-5.344190248033117
 31
0.0
  0
SPLINE
  5
181
330
1F
100
AcDbEntity
  8
0
  6
Continuous
 62
     7
370
    -3
100
AcDbSpline
210
0.0
220
0.0
230
1.0
 70
    24
 71
     1
 72
     4
 73
     2
 74
     0
 42
0.0000000001
 43
0.0000000001
 40
0.0
 40
0.0
 40
1.0
 40
1.0
 10
31.55222268306371
 20
-5.354190452509904
 30
0.0
 10
31.55222268306371
 20
-5.388190326407126
 30
0.0
  0
LINE
  5
182
330
1F
100
AcDbEntity
  8
0
  6
Continuous
 62
     7
370
    -3
100
AcDbLine
 10
31.45262074034051
 20
-5.354190452509902
 30
0.0
 11
31.55222268306371
 21
-5.354190452509904
 31
0.0
  0
LINE
  5
183
330
1F
100
AcDbEntity
  8
0
  6
Continuous
 62
     7
370
    -3
100
AcDbLine
 10
31.45262074034051
 20
-5.388190326407124
 30
0.0
 11
31.55222268306371
 21
-5.388190326407126
 31
0.0
  0
SPLINE
  5
184
330
1F
100
AcDbEntity
  8
0
  6
Continuous
 62
     7
370
    -3
100
AcDbSpline
210
0.0
220
0.0
230
1.0
 70
    24
 71
     1
 72
     4
 73
     2
 74
     0
 42
0.0000000001
 43
0.0000000001
 40
0.0
 40
0.0
 40
1.0
 40
1.0
 10
31.55222268306371
 20
-5.484190177408652
 30
0.0
 10
31.55222268306371
 20
-5.450190303511431
 30
0.0
  0
SPLINE
  5
185
330
1F
100
AcDbEntity
  8
0
  6
Continuous
 62
     7
370
    -3
100
AcDbSpline
210
0.0
220
0.0
230
1.0
 70
     8
 71
     3
 72
    14
 73
    10
 74
     0
 42
0.0000000001
 43
0.0000000001
 40
0.0
 40
0.0
 40
0.0
 40
0.0
 40
0.1283558694396534
 40
0.2641372145820407
 40
0.4991656342960586
 40
0.6520527485144941
 40
0.7354185310115331
 40
0.8571054823361039
 40
1.0
 40
1.0
 40
1.0
 40
1.0
 10
31.55222268306371
 20
-5.450190303511431
 30
0.0
 10
31.55712214116372
 20
-5.449509653811194
 30
0.0
 10
31.56720449439887
 20
-5.448108978355431
 30
0.0
 10
31.58120476658756
 20
-5.434788696234619
 30
0.0
 10
31.58401038079698
 20
-5.420669464292707
 30
0.0
 10
31.58246884779201
 20
-5.410396431373368
 30
0.0
 10
31.57745022376479
 20
-5.399842094318707
 30
0.0
 10
31.56544180370772
 20
-5.389424169983326
 30
0.0
 10
31.55685839149867
 20
-5.388623013211919
 30
0.0
 10
31.55222268306371
 20
-5.388190326407126
 30
0.0
  0
SPLINE
  5
186
330
1F
100
AcDbEntity
  8
0
  6
Continuous
 62
     7
370
    -3
100
AcDbSpline
210
0.0
220
0.0
230
1.0
 70
     8
 71
     3
 72
    18
 73
    14
 74
     0
 42
0.0000000001
 43
0.0000000001
 40
0.0
 40
0.0
 40
0.0
 40
0.0
 40
0.0691509070590632
 40
0.1391397760858015
 40
0.2810483728307788
 40
0.3819371869251411
 40
0.4992301294393704
 40
0.6344423789654879
 40
0.7177426209581216
 40
0.7847106484287015
 40
0.8539198695964117
 40
0.9256091118473712
 40
1.0
 40
1.0
 40
1.0
 40
1.0
 10
31.55222268306371
 20
-5.484190177408652
 30
0.0
 10
31.55733927735838
 20
-5.48383294277983
 30
0.0
 10
31.56763446819186
 20
-5.483114144598019
 30
0.0
 10
31.58692949018615
 20
-5.475755400973538
 30
0.0
 10
31.60469151793652
 20
-5.460451610925496
 30
0.0
 10
31.61545336054633
 20
-5.438391370762724
 30
0.0
 10
31.61829521811781
 20
-5.418061326501866
 30
0.0
 10
31.6152707438548
 20
-5.39934609613017
 30
0.0
 10
31.60633289410816
 20
-5.381819941212776
 30
0.0
 10
31.59455732498968
 20
-5.369020175212163
 30
0.0
 10
31.58177129107351
 20
-5.360670709690026
 30
0.0
 10
31.567222556974
 20
-5.355174272122293
 30
0.0
 10
31.55728391038361
 20
-5.354522410947011
 30
0.0
 10
31.55222268306371
 20
-5.354190452509904
 30
0.0
  0
LINE
  5
187
330
1F
100
AcDbEntity
  8
0
  6
Continuous
 62
     7
370
    -3
100
AcDbLine
 10
31.11511999917787
 20
-5.484190177408651
 30
0.0
 11
31.11511999917787
 21
-5.450190303511429
 31
0.0
  0
LINE
  5
188
330
1F
100
AcDbEntity
  8
0
  6
Continuous
 62
     7
370
    -3
100
AcDbLine
 10
31.55222268306371
 20
-5.450190303511431
 30
0.0
 11
31.11511999917787
 21
-5.450190303511429
 31
0.0
  0
LINE
  5
189
330
1F
100
AcDbEntity
  8
0
  6
Continuous
 62
     7
370
    -3
100
AcDbLine
 10
31.55222268306371
 20
-5.484190177408652
 30
0.0
 11
31.11511999917787
 21
-5.484190177408651
 31
0.0
  0
LINE
  5
18A
330
1F
100
AcDbEntity
  8
0
  6
Continuous
 62
     7
370
    -3
100
AcDbLine
 10
15.17112037145553
 20
12.71381010440592
 30
0.0
 11
31.41012075130408
 21
12.71381010440586
 31
0.0
  0
LINE
  5
18B
330
1F
100
AcDbEntity
  8
0
  6
Continuous
 62
     7
370
    -3
100
AcDbLine
 10
31.41012075130408
 20
12.66981002603185
 30
0.0
 11
31.41012075130408
 21
12.71381010440586
 31
0.0
  0
LINE
  5
18C
330
1F
100
AcDbEntity
  8
0
  6
Continuous
 62
     7
370
    -3
100
AcDbLine
 10
32.14012042495222
 20
11.93980976572381
 30
0.0
 11
31.41012075130408
 21
12.66981002603185
 31
0.0
  0
LINE
  5
18D
330
1F
100
AcDbEntity
  8
0
  6
Continuous
 62
     7
370
    -3
100
AcDbLine
 10
32.14012042495222
 20
11.93980976572381
 30
0.0
 11
32.14012042495216
 21
-4.603601950039003
 31
0.0
  0
LINE
  5
18E
330
1F
100
AcDbEntity
  8
0
  6
Continuous
 62
     7
370
    -3
100
AcDbLine
 10
31.45262074034051
 20
-5.291101634650642
 30
0.0
 11
32.14012042495216
 21
-4.603601950039003
 31
0.0
  0
LINE
  5
18F
330
1F
100
AcDbEntity
  8
0
  6
Continuous
 62
     7
370
    -3
100
AcDbLine
 10
31.41012075130408
 20
12.71381010440586
 30
0.0
 11
31.55222268306377
 21
12.71381010440586
 31
0.0
  0
SPLINE
  5
190
330
1F
100
AcDbEntity
  8
0
  6
Continuous
 62
     7
370
    -3
100
AcDbSpline
210
0.0
220
0.0
230
1.0
 70
    24
 71
     1
 72
     4
 73
     2
 74
     0
 42
0.0000000001
 43
0.0000000001
 40
0.0
 40
0.0
 40
1.0
 40
1.0
 10
31.55222268306377
 20
12.67980964384875
 30
0.0
 10
31.55222268306377
 20
12.71381010440586
 30
0.0
  0
LINE
  5
191
330
1F
100
AcDbEntity
  8
0
  6
Continuous
 62
     7
370
    -3
100
AcDbLine
 10
31.41012075130408
 20
12.67980964384875
 30
0.0
 11
31.55222268306377
 21
12.67980964384875
 31
0.0
  0
SPLINE
  5
192
330
1F
100
AcDbEntity
  8
0
  6
Continuous
 62
     7
370
    -3
100
AcDbSpline
210
0.0
220
0.0
230
1.0
 70
    24
 71
     1
 72
     4
 73
     2
 74
     0
 42
0.0000000001
 43
0.0000000001
 40
0.0
 40
0.0
 40
1.0
 40
1.0
 10
31.55222268306377
 20
12.80980995540739
 30
0.0
 10
31.55222268306377
 20
12.77581008151017
 30
0.0
  0
SPLINE
  5
193
330
1F
100
AcDbEntity
  8
0
  6
Continuous
 62
     7
370
    -3
100
AcDbSpline
210
0.0
220
0.0
230
1.0
 70
     8
 71
     3
 72
    14
 73
    10
 74
     0
 42
0.0000000001
 43
0.0000000001
 40
0.0
 40
0.0
 40
0.0
 40
0.0
 40
0.1429051005044181
 40
0.2645820936182769
 40
0.3479352553191434
 40
0.5008294183892062
 40
0.7358633235573385
 40
0.8716392256836492
 40
1.0
 40
1.0
 40
1.0
 40
1.0
 10
31.55222268306377
 20
12.71381010440586
 30
0.0
 10
31.55685817952672
 20
12.71424258382984
 30
0.0
 10
31.56544058389716
 20
12.71504329920698
 30
0.0
 10
31.57744999951678
 20
12.72546172116321
 30
0.0
 10
31.58246934950307
 20
12.73601635926426
 30
0.0
 10
31.5840100277729
 20
12.74628923188604
 30
0.0
 10
31.58120542606306
 20
12.76040787135633
 30
0.0
 10
31.56720386309868
 20
12.77372907545145
 30
0.0
 10
31.55712206741833
 20
12.77512951772934
 30
0.0
 10
31.55222268306377
 20
12.77581008151017
 30
0.0
  0
SPLINE
  5
194
330
1F
100
AcDbEntity
  8
0
  6
Continuous
 62
     7
370
    -3
100
AcDbSpline
210
0.0
220
0.0
230
1.0
 70
     8
 71
     3
 72
    18
 73
    14
 74
     0
 42
0.0000000001
 43
0.0000000001
 40
0.0
 40
0.0
 40
0.0
 40
0.0
 40
0.0743964716871795
 40
0.1460849610534302
 40
0.2152952050312516
 40
0.2822590416314046
 40
0.3655486940222086
 40
0.5007678074733525
 40
0.6180606073751327
 40
0.7189521784645324
 40
0.8608580957061791
 40
0.9308468796358621
 40
1.0
 40
1.0
 40
1.0
 40
1.0
 10
31.55222268306377
 20
12.67980964384875
 30
0.0
 10
31.55728377687248
 20
12.68014188169124
 30
0.0
 10
31.56722174402556
 20
12.6807942641387
 30
0.0
 10
31.58177167554282
 20
12.68628962731303
 30
0.0
 10
31.59455665376954
 20
12.69463972198016
 30
0.0
 10
31.60633295771154
 20
12.70743938880616
 30
0.0
 10
31.61526946043741
 20
12.72496608716637
 30
0.0
 10
31.61829565961497
 20
12.74368051249013
 30
0.0
 10
31.6154531078343
 20
12.76401157125429
 30
0.0
 10
31.60469199790324
 20
12.7860707204198
 30
0.0
 10
31.58692931473545
 20
12.80137535449854
 30
0.0
 10
31.56763418797249
 20
12.80873396655641
 30
0.0
 10
31.55733924144386
 20
12.80945273138514
 30
0.0
 10
31.55222268306377
 20
12.80980995540739
 30
0.0
  0
LINE
  5
195
330
1F
100
AcDbEntity
  8
0
  6
Continuous
 62
     7
370
    -3
100
AcDbLine
 10
31.11511999917794
 20
12.77581008151017
 30
0.0
 11
31.11511999917794
 21
12.80980995540739
 31
0.0
  0
LINE
  5
196
330
1F
100
AcDbEntity
  8
0
  6
Continuous
 62
     7
370
    -3
100
AcDbLine
 10
31.55222268306377
 20
12.80980995540739
 30
0.0
 11
31.11511999917794
 21
12.80980995540739
 31
0.0
  0
LINE
  5
197
330
1F
100
AcDbEntity
  8
0
  6
Continuous
 62
     7
370
    -3
100
AcDbLine
 10
31.55222268306377
 20
12.77581008151017
 30
0.0
 11
31.11511999917794
 21
12.77581008151017
 31
0.0
  0
CIRCLE
  5
198
330
1F
100
AcDbEntity
  8
0
  6
Continuous
 62
     7
370
    -3
100
AcDbCircle
 10
12.69062036734127
 20
11.25480982594804
 30
0.0
 40
0.0469999999999988
  0
CIRCLE
  5
199
330
1F
100
AcDbEntity
  8
0
  6
Continuous
 62
     7
370
    -3
100
AcDbCircle
 10
12.69062036734121
 20
-3.845190174051947
 30
0.0
 40
0.0470000000000006
  0
LINE
  5
19A
330
1F
100
AcDbEntity
  8
0
  6
Continuous
 62
     7
370
    -3
100
AcDbLine
 10
13.06562034853803
 20
-13.38718704131443
 30
0.0
 11
13.06562034853803
 21
-13.29319239381528
 31
0.0
  0
LINE
  5
19B
330
1F
100
AcDbEntity
  8
0
  6
Continuous
 62
     7
370
    -3
100
AcDbLine
 10
13.06562034853816
 20
20.65281204571137
 30
0.0
 11
13.06562034853816
 21
20.74680669321051
 31
0.0
  0
ARC
  5
19C
330
1F
100
AcDbEntity
  8
0
  6
Continuous
 62
     7
370
    -3
100
AcDbCircle
 10
12.61262036734117
 20
-3.849190174051967
 30
0.0
 40
0.0940000000000021
100
AcDbArc
 50
90.0
 51
270.0000000000008
  0
LINE
  5
19D
330
1F
100
AcDbEntity
  8
0
  6
Continuous
 62
     7
370
    -3
100
AcDbLine
 10
12.73762041762126
 20
-3.94319011250617
 30
0.0
 11
12.61262035496598
 21
-3.94319011250617
 31
0.0
  0
ARC
  5
19E
330
1F
100
AcDbEntity
  8
0
  6
Continuous
 62
     7
370
    -3
100
AcDbCircle
 10
12.73762036734117
 20
-3.849190174051967
 30
0.0
 40
0.0940000000000021
100
AcDbArc
 50
269.9999999999986
 51
90.0
  0
LINE
  5
19F
330
1F
100
AcDbEntity
  8
0
  6
Continuous
 62
     7
370
    -3
100
AcDbLine
 10
12.61262035496598
 20
-3.755190257629869
 30
0.0
 11
12.73762041762126
 21
-3.755190257629869
 31
0.0
  0
ARC
  5
1A0
330
1F
100
AcDbEntity
  8
0
  6
Continuous
 62
     7
370
    -3
100
AcDbCircle
 10
12.62262036734122
 20
11.23480982594803
 30
0.0
 40
0.0939999999999994
100
AcDbArc
 50
90.0
 51
270.0000000000008
  0
LINE
  5
1A1
330
1F
100
AcDbEntity
  8
0
  6
Continuous
 62
     7
370
    -3
100
AcDbLine
 10
12.74762032876815
 20
11.14081008916966
 30
0.0
 11
12.62262041277785
 21
11.14081008916966
 31
0.0
  0
ARC
  5
1A2
330
1F
100
AcDbEntity
  8
0
  6
Continuous
 62
     7
370
    -3
100
AcDbCircle
 10
12.74762036734122
 20
11.23480982594803
 30
0.0
 40
0.0939999999999994
100
AcDbArc
 50
270.0000000000008
 51
90.0
  0
LINE
  5
1A3
330
1F
100
AcDbEntity
  8
0
  6
Continuous
 62
     7
370
    -3
100
AcDbLine
 10
12.62262041277785
 20
11.32880994404596
 30
0.0
 11
12.74762032876815
 21
11.32880994404596
 31
0.0
  0
ARC
  5
1A4
330
1F
100
AcDbEntity
  8
0
  6
Continuous
 62
     7
370
    -3
100
AcDbCircle
 10
14.67162036734114
 20
-11.83019017405197
 30
0.0
 40
0.094000000000003
100
AcDbArc
 50
90.0
 51
270.0000000000008
  0
LINE
  5
1A5
330
1F
100
AcDbEntity
  8
0
  6
Continuous
 62
     7
370
    -3
100
AcDbLine
 10
14.67162034922232
 20
-11.92418986198269
 30
0.0
 11
14.79662037521135
 21
-11.92418986198269
 31
0.0
  0
ARC
  5
1A6
330
1F
100
AcDbEntity
  8
0
  6
Continuous
 62
     7
370
    -3
100
AcDbCircle
 10
14.79662036734114
 20
-11.83019017405197
 30
0.0
 40
0.0940000000000012
100
AcDbArc
 50
270.0000000000008
 51
90.0
  0
LINE
  5
1A7
330
1F
100
AcDbEntity
  8
0
  6
Continuous
 62
     7
370
    -3
100
AcDbLine
 10
14.79662037521135
 20
-11.73619000710639
 30
0.0
 11
14.67162034922232
 21
-11.73619000710639
 31
0.0
  0
ARC
  5
1A8
330
1F
100
AcDbEntity
  8
0
  6
Continuous
 62
     7
370
    -3
100
AcDbCircle
 10
14.67162036734119
 20
3.669809825948025
 30
0.0
 40
0.0939999999999999
100
AcDbArc
 50
90.0
 51
270.0000000000008
  0
LINE
  5
1A9
330
1F
100
AcDbEntity
  8
0
  6
Continuous
 62
     7
370
    -3
100
AcDbLine
 10
14.67162034922238
 20
3.575809822364953
 30
0.0
 11
14.79662037521141
 21
3.575809822364953
 31
0.0
  0
ARC
  5
1AA
330
1F
100
AcDbEntity
  8
0
  6
Continuous
 62
     7
370
    -3
100
AcDbCircle
 10
14.7966203673412
 20
3.669809825948024
 30
0.0
 40
0.0939999999999999
100
AcDbArc
 50
270.0000000000008
 51
90.0
  0
LINE
  5
1AB
330
1F
100
AcDbEntity
  8
0
  6
Continuous
 62
     7
370
    -3
100
AcDbLine
 10
14.79662037521141
 20
3.763809823906225
 30
0.0
 11
14.67162034922238
 21
3.763809823906226
 31
0.0
  0
ARC
  5
1AC
330
1F
100
AcDbEntity
  8
0
  6
Continuous
 62
     7
370
    -3
100
AcDbCircle
 10
12.97862036734114
 20
-13.33019017405197
 30
0.0
 40
0.094000000000003
100
AcDbArc
 50
90.0
 51
269.9999999999997
  0
LINE
  5
1AD
330
1F
100
AcDbEntity
  8
0
  6
Continuous
 62
     7
370
    -3
100
AcDbLine
 10
12.97862030023668
 20
-13.42419002718611
 30
0.0
 11
13.10362036289195
 21
-13.42419002718611
 31
0.0
  0
ARC
  5
1AE
330
1F
100
AcDbEntity
  8
0
  6
Continuous
 62
     7
370
    -3
100
AcDbCircle
 10
13.10362036734113
 20
-13.33019017405197
 30
0.0
 40
0.094000000000003
100
AcDbArc
 50
270.0000000000008
 51
90.0
  0
LINE
  5
1AF
330
1F
100
AcDbEntity
  8
0
  6
Continuous
 62
     7
370
    -3
100
AcDbLine
 10
13.10362036289196
 20
-13.23619017230981
 30
0.0
 11
12.97862030023668
 21
-13.23619017230981
 31
0.0
  0
ARC
  5
1B0
330
1F
100
AcDbEntity
  8
0
  6
Continuous
 62
     7
370
    -3
100
AcDbCircle
 10
-0.5213796326588602
 20
-13.33019017405192
 30
0.0
 40
0.094000000000003
100
AcDbArc
 50
90.00000000000136
 51
270.0000000000021
  0
LINE
  5
1B1
330
1F
100
AcDbEntity
  8
0
  6
Continuous
 62
     7
370
    -3
100
AcDbLine
 10
-0.5213792799495004
 20
-13.42419002718606
 30
0.0
 11
-0.3963796572891411
 21
-13.42419002718606
 31
0.0
  0
ARC
  5
1B2
330
1F
100
AcDbEntity
  8
0
  6
Continuous
 62
     7
370
    -3
100
AcDbCircle
 10
-0.3963796326588587
 20
-13.33019017405192
 30
0.0
 40
0.094000000000003
100
AcDbArc
 50
270.0000000000008
 51
90.00000000000133
  0
LINE
  5
1B3
330
1F
100
AcDbEntity
  8
0
  6
Continuous
 62
     7
370
    -3
100
AcDbLine
 10
-0.3963796572891411
 20
-13.23619017230976
 30
0.0
 11
-0.5213792799495004
 21
-13.23619017230976
 31
0.0
  0
ARC
  5
1B4
330
1F
100
AcDbEntity
  8
0
  6
Continuous
 62
     7
370
    -3
100
AcDbCircle
 10
-2.076379632658856
 20
-11.83019017405192
 30
0.0
 40
0.094000000000003
100
AcDbArc
 50
90.0
 51
270.0000000000008
  0
LINE
  5
1B5
330
1F
100
AcDbEntity
  8
0
  6
Continuous
 62
     7
370
    -3
100
AcDbLine
 10
-2.076379983115343
 20
-11.92418986198263
 30
0.0
 11
-1.951379187135206
 21
-11.92418986198263
 31
0.0
  0
ARC
  5
1B6
330
1F
100
AcDbEntity
  8
0
  6
Continuous
 62
     7
370
    -3
100
AcDbCircle
 10
-1.951379632658854
 20
-11.83019017405192
 30
0.0
 40
0.094000000000003
100
AcDbArc
 50
270.0000000000008
 51
90.0
  0
LINE
  5
1B7
330
1F
100
AcDbEntity
  8
0
  6
Continuous
 62
     7
370
    -3
100
AcDbLine
 10
-1.951379187135206
 20
-11.73619000710633
 30
0.0
 11
-2.076379983115343
 21
-11.73619000710633
 31
0.0
  0
ARC
  5
1B8
330
1F
100
AcDbEntity
  8
0
  6
Continuous
 62
     7
370
    -3
100
AcDbCircle
 10
-2.076379632658801
 20
3.669809825948082
 30
0.0
 40
0.0939999999999999
100
AcDbArc
 50
90.0
 51
270.0000000000008
  0
LINE
  5
1B9
330
1F
100
AcDbEntity
  8
0
  6
Continuous
 62
     7
370
    -3
100
AcDbLine
 10
-2.076379983115287
 20
3.575809822365015
 30
0.0
 11
-1.951379187135149
 21
3.575809822365014
 31
0.0
  0
ARC
  5
1BA
330
1F
100
AcDbEntity
  8
0
  6
Continuous
 62
     7
370
    -3
100
AcDbCircle
 10
-1.9513796326588
 20
3.669809825948082
 30
0.0
 40
0.0939999999999999
100
AcDbArc
 50
270.0000000000008
 51
90.0
  0
LINE
  5
1BB
330
1F
100
AcDbEntity
  8
0
  6
Continuous
 62
     7
370
    -3
100
AcDbLine
 10
-1.951379187135149
 20
3.763809823906287
 30
0.0
 11
-2.076379983115287
 21
3.763809823906288
 31
0.0
  0
ARC
  5
1BC
330
1F
100
AcDbEntity
  8
0
  6
Continuous
 62
     7
370
    -3
100
AcDbCircle
 10
-2.076379632658749
 20
19.16980982594808
 30
0.0
 40
0.0940000000000012
100
AcDbArc
 50
90.0
 51
270.0000000000008
  0
LINE
  5
1BD
330
1F
100
AcDbEntity
  8
0
  6
Continuous
 62
     7
370
    -3
100
AcDbLine
 10
-2.07637998311523
 20
19.07580925004896
 30
0.0
 11
-1.951379187135092
 21
19.07580925004896
 31
0.0
  0
ARC
  5
1BE
330
1F
100
AcDbEntity
  8
0
  6
Continuous
 62
     7
370
    -3
100
AcDbCircle
 10
-1.951379632658747
 20
19.16980982594808
 30
0.0
 40
0.0940000000000012
100
AcDbArc
 50
270.0000000000008
 51
90.0
  0
LINE
  5
1BF
330
1F
100
AcDbEntity
  8
0
  6
Continuous
 62
     7
370
    -3
100
AcDbLine
 10
-1.951379187135092
 20
19.26381027824503
 30
0.0
 11
-2.07637998311523
 21
19.26381027824503
 31
0.0
  0
ARC
  5
1C0
330
1F
100
AcDbEntity
  8
0
  6
Continuous
 62
     7
370
    -3
100
AcDbCircle
 10
14.67162036734125
 20
19.15980982594802
 30
0.0
 40
0.0940000000000012
100
AcDbArc
 50
90.0
 51
269.9999999999997
  0
LINE
  5
1C1
330
1F
100
AcDbEntity
  8
0
  6
Continuous
 62
     7
370
    -3
100
AcDbLine
 10
14.67162034922243
 20
19.06581021889189
 30
0.0
 11
14.79662037521147
 21
19.06581021889189
 31
0.0
  0
ARC
  5
1C2
330
1F
100
AcDbEntity
  8
0
  6
Continuous
 62
     7
370
    -3
100
AcDbCircle
 10
14.79662036734125
 20
19.15980982594802
 30
0.0
 40
0.0940000000000012
100
AcDbArc
 50
270.0000000000008
 51
90.0
  0
LINE
  5
1C3
330
1F
100
AcDbEntity
  8
0
  6
Continuous
 62
     7
370
    -3
100
AcDbLine
 10
14.79662037521147
 20
19.25381007376818
 30
0.0
 11
14.67162034922243
 21
19.25381007376819
 31
0.0
  0
ARC
  5
1C4
330
1F
100
AcDbEntity
  8
0
  6
Continuous
 62
     7
370
    -3
100
AcDbCircle
 10
-0.5213796326587423
 20
20.66980982594807
 30
0.0
 40
0.0940000000000012
100
AcDbArc
 50
90.0
 51
270.0000000000021
  0
LINE
  5
1C5
330
1F
100
AcDbEntity
  8
0
  6
Continuous
 62
     7
370
    -3
100
AcDbLine
 10
-0.5213792799493735
 20
20.57580941525237
 30
0.0
 11
-0.3963796572890144
 21
20.57580941525237
 31
0.0
  0
ARC
  5
1C6
330
1F
100
AcDbEntity
  8
0
  6
Continuous
 62
     7
370
    -3
100
AcDbCircle
 10
-0.3963796326587406
 20
20.66980982594807
 30
0.0
 40
0.0940000000000012
100
AcDbArc
 50
270.0000000000008
 51
90.0
  0
LINE
  5
1C7
330
1F
100
AcDbEntity
  8
0
  6
Continuous
 62
     7
370
    -3
100
AcDbLine
 10
-0.3963796572890144
 20
20.76380927012868
 30
0.0
 11
-0.5213792799493735
 21
20.76380927012868
 31
0.0
  0
ARC
  5
1C8
330
1F
100
AcDbEntity
  8
0
  6
Continuous
 62
     7
370
    -3
100
AcDbCircle
 10
12.99862036734125
 20
20.66980982594802
 30
0.0
 40
0.0940000000000048
100
AcDbArc
 50
90.0
 51
270.0000000000008
  0
LINE
  5
1C9
330
1F
100
AcDbEntity
  8
0
  6
Continuous
 62
     7
370
    -3
100
AcDbLine
 10
12.99862041586043
 20
20.57580941525233
 30
0.0
 11
13.12362033185073
 21
20.57580941525233
 31
0.0
  0
ARC
  5
1CA
330
1F
100
AcDbEntity
  8
0
  6
Continuous
 62
     7
370
    -3
100
AcDbCircle
 10
13.12362036734125
 20
20.66980982594802
 30
0.0
 40
0.0940000000000048
100
AcDbArc
 50
270.0000000000008
 51
90.0
  0
LINE
  5
1CB
330
1F
100
AcDbEntity
  8
0
  6
Continuous
 62
     7
370
    -3
100
AcDbLine
 10
13.12362033185073
 20
20.76380927012862
 30
0.0
 11
12.99862041586043
 21
20.76380927012862
 31
0.0
  0
LINE
  5
1CC
330
1F
100
AcDbEntity
  8
0
  6
Continuous
 62
     7
370
    -3
100
AcDbLine
 10
-2.467942606417181
 20
-13.78918986401012
 30
0.0
 11
15.00018335905105
 21
-13.78918986401019
 31
0.0
  0
LINE
  5
1CD
330
1F
100
AcDbEntity
  8
0
  6
Continuous
 62
     7
370
    -3
100
AcDbLine
 10
-2.597879558707751
 20
-13.65925291171955
 30
0.0
 11
-2.467942606417181
 21
-13.78918986401012
 31
0.0
  0
LINE
  5
1CE
330
1F
100
AcDbEntity
  8
0
  6
Continuous
 62
     7
370
    -3
100
AcDbLine
 10
-2.597879558707625
 20
20.99887332798196
 30
0.0
 11
-2.597879558707751
 21
-13.65925291171955
 31
0.0
  0
LINE
  5
1CF
330
1F
100
AcDbEntity
  8
0
  6
Continuous
 62
     7
370
    -3
100
AcDbLine
 10
-2.467942606417052
 20
21.12881028027254
 30
0.0
 11
-2.597879558707625
 21
20.99887332798196
 31
0.0
  0
LINE
  5
1D0
330
1F
100
AcDbEntity
  8
0
  6
Continuous
 62
     7
370
    -3
100
AcDbLine
 10
15.00018335905118
 20
21.12881028027247
 30
0.0
 11
-2.467942606417052
 21
21.12881028027254
 31
0.0
  0
LINE
  5
1D1
330
1F
100
AcDbEntity
  8
0
  6
Continuous
 62
     7
370
    -3
100
AcDbLine
 10
15.1301203709244
 20
20.9988733279819
 30
0.0
 11
15.00018335905118
 21
21.12881028027247
 31
0.0
  0
LINE
  5
1D2
330
1F
100
AcDbEntity
  8
0
  6
Continuous
 62
     7
370
    -3
100
AcDbLine
 10
15.13012037092427
 20
-13.65925291171962
 30
0.0
 11
15.1301203709244
 21
20.9988733279819
 31
0.0
  0
LINE
  5
1D3
330
1F
100
AcDbEntity
  8
0
  6
Continuous
 62
     7
370
    -3
100
AcDbLine
 10
15.00018335905105
 20
-13.78918986401019
 30
0.0
 11
15.13012037092427
 21
-13.65925291171962
 31
0.0
  0
SPLINE
  5
1D4
330
1F
100
AcDbEntity
  8
0
  6
Continuous
 62
     7
370
    -3
100
AcDbSpline
210
0.0
220
0.0
230
1.0
 70
     8
 71
     3
 72
    11
 73
     7
 74
     0
 42
0.0000000001
 43
0.0000000001
 40
0.0
 40
0.0
 40
0.0
 40
0.0
 40
0.2500001366273721
 40
0.4999999897760477
 40
0.7499998531486813
 40
1.0
 40
1.0
 40
1.0
 40
1.0
 10
15.00018335905118
 20
21.12881028027247
 30
0.0
 10
14.99851144372012
 20
21.13418270764658
 30
0.0
 10
14.99516761495382
 20
21.14492755630295
 30
0.0
 10
14.99015186504697
 20
21.1584789295988
 30
0.0
 10
14.98513611149485
 20
21.16796071710103
 30
0.0
 10
14.9817922813995
 20
21.16919330100845
 30
0.0
 10
14.98012036540393
 20
21.16980959331157
 30
0.0
  0
SPLINE
  5
1D5
330
1F
100
AcDbEntity
  8
0
  6
Continuous
 62
     7
370
    -3
100
AcDbSpline
210
0.0
220
0.0
230
1.0
 70
     8
 71
     3
 72
    11
 73
     7
 74
     0
 42
0.0000000001
 43
0.0000000001
 40
0.0
 40
0.0
 40
0.0
 40
0.0
 40
0.2500014503147056
 40
0.4999973828488042
 40
0.7499985496852945
 40
1.0
 40
1.0
 40
1.0
 40
1.0
 10
-2.447880011515192
 20
21.16980959331164
 30
0.0
 10
-2.449552112549621
 20
21.16919332678208
 30
0.0
 10
-2.452896277713547
 20
21.16796080732457
 30
0.0
 10
-2.457910375769318
 20
21.15847877917641
 30
0.0
 10
-2.462926763066215
 20
21.14492757021877
 30
0.0
 10
-2.466270658001492
 20
21.13418271228522
 30
0.0
 10
-2.467942606417052
 20
21.12881028027254
 30
0.0
  0
LINE
  5
1D6
330
1F
100
AcDbEntity
  8
0
  6
Continuous
 62
     7
370
    -3
100
AcDbLine
 10
-2.447880011515192
 20
21.16980959331164
 30
0.0
 11
14.98012036540393
 21
21.16980959331157
 31
0.0
  0
SPLINE
  5
1D7
330
1F
100
AcDbEntity
  8
0
  6
Continuous
 62
     7
370
    -3
100
AcDbSpline
210
0.0
220
0.0
230
1.0
 70
     8
 71
     3
 72
    11
 73
     7
 74
     0
 42
0.0000000001
 43
0.0000000001
 40
0.0
 40
0.0
 40
0.0
 40
0.0
 40
0.2499960532954474
 40
0.4999918231168516
 40
0.749987582714465
 40
1.0
 40
1.0
 40
1.0
 40
1.0
 10
14.9801203654038
 20
-13.83019035036907
 30
0.0
 10
14.98179228335466
 20
-13.82957405859958
 30
0.0
 10
14.98513611736058
 20
-13.82834147575941
 30
0.0
 10
14.99015184158347
 20
-13.81885968025281
 30
0.0
 10
14.99516781245087
 20
-13.80530804151184
 30
0.0
 10
14.99851147305316
 20
-13.79456270917038
 30
0.0
 10
15.00018335905105
 20
-13.78918986401019
 30
0.0
  0
LINE
  5
1D8
330
1F
100
AcDbEntity
  8
0
  6
Continuous
 62
     7
370
    -3
100
AcDbLine
 10
14.9801203654038
 20
-13.83019035036907
 30
0.0
 11
-2.447880011515323
 21
-13.83019035036901
 31
0.0
  0
SPLINE
  5
1D9
330
1F
100
AcDbEntity
  8
0
  6
Continuous
 62
     7
370
    -3
100
AcDbSpline
210
0.0
220
0.0
230
1.0
 70
     8
 71
     3
 72
    11
 73
     7
 74
     0
 42
0.0000000001
 43
0.0000000001
 40
0.0
 40
0.0
 40
0.0
 40
0.0
 40
0.2500137309305126
 40
0.5000108042013786
 40
0.7500026432555603
 40
0.9999999999999998
 40
0.9999999999999998
 40
0.9999999999999998
 40
0.9999999999999998
 10
-2.467942606417181
 20
-13.78918986401012
 30
0.0
 10
-2.466270687338799
 20
-13.79456271380988
 30
0.0
 10
-2.462926960576959
 20
-13.80530805543265
 30
0.0
 10
-2.457910352306785
 20
-13.81885952983004
 30
0.0
 10
-2.452896283579434
 20
-13.8283415659829
 30
0.0
 10
-2.449552114505025
 20
-13.82957408437311
 30
0.0
 10
-2.447880011515325
 20
-13.83019035036901
 30
0.0
  0
LINE
  5
1DA
330
1F
100
AcDbEntity
  8
0
  6
Continuous
 62
     7
370
    -3
100
AcDbLine
 10
-2.597879558707625
 20
20.99887332798196
 30
0.0
 11
-2.638880045066508
 21
20.99887332798196
 31
0.0
  0
LINE
  5
1DB
330
1F
100
AcDbEntity
  8
0
  6
Continuous
 62
     7
370
    -3
100
AcDbLine
 10
-2.638880045066634
 20
-13.65925291171955
 30
0.0
 11
-2.597879558707751
 21
-13.65925291171955
 31
0.0
  0
LINE
  5
1DC
330
1F
100
AcDbEntity
  8
0
  6
Continuous
 62
     7
370
    -3
100
AcDbLine
 10
-2.638880045066634
 20
-13.65925291171955
 30
0.0
 11
-2.638880045066508
 21
20.99887332798196
 31
0.0
  0
LINE
  5
1DD
330
1F
100
AcDbEntity
  8
0
  6
Continuous
 62
     7
370
    -3
100
AcDbLine
 10
15.13012037092427
 20
-13.65925291171962
 30
0.0
 11
15.17112037145543
 21
-13.65925291171962
 31
0.0
  0
LINE
  5
1DE
330
1F
100
AcDbEntity
  8
0
  6
Continuous
 62
     7
370
    -3
100
AcDbLine
 10
15.17112037145555
 20
20.9988733279819
 30
0.0
 11
15.1301203709244
 21
20.9988733279819
 31
0.0
  0
LINE
  5
1DF
330
1F
100
AcDbEntity
  8
0
  6
Continuous
 62
     7
370
    -3
100
AcDbLine
 10
15.17112037145555
 20
20.9988733279819
 30
0.0
 11
15.17112037145543
 21
-13.65925291171962
 31
0.0
  0
SPLINE
  5
1E0
330
1F
100
AcDbEntity
  8
0
  6
Continuous
 62
     7
370
    -3
100
AcDbSpline
210
0.0
220
0.0
230
1.0
 70
     8
 71
     3
 72
    11
 73
     7
 74
     0
 42
0.0000000001
 43
0.0000000001
 40
0.0
 40
0.0
 40
0.0
 40
0.0
 40
0.2500003437955739
 40
0.4999994908773191
 40
0.750003058242994
 40
1.0
 40
1.0
 40
1.0
 40
1.0
 10
15.06012036727875
 20
21.09362124677919
 30
0.0
 10
15.06614806080764
 20
21.09585514311756
 30
0.0
 10
15.07820341901178
 20
21.100322925101
 30
0.0
 10
15.09340869266943
 20
21.10702651360442
 30
0.0
 10
15.10404589305628
 20
21.11372977865184
 30
0.0
 10
15.10542888479938
 20
21.11819768177253
 30
0.0
 10
15.10612037150777
 20
21.12043160373032
 30
0.0
  0
SPLINE
  5
1E1
330
1F
100
AcDbEntity
  8
0
  6
Continuous
 62
     7
370
    -3
100
AcDbSpline
210
0.0
220
0.0
230
1.0
 70
     8
 71
     3
 72
     9
 73
     5
 74
     0
 42
0.0000000001
 43
0.0000000001
 40
0.0
 40
0.0
 40
0.0
 40
0.0
 40
0.4999975940590331
 40
1.0
 40
1.0
 40
1.0
 40
1.0
 10
15.06012036727875
 20
21.09362124677919
 30
0.0
 10
15.06174168842369
 20
21.09808965035496
 30
0.0
 10
15.06498434631689
 20
21.10702650050958
 30
0.0
 10
15.06574169384057
 20
21.11596322165593
 30
0.0
 10
15.06612036942454
 20
21.12043160373032
 30
0.0
  0
SPLINE
  5
1E2
330
1F
100
AcDbEntity
  8
0
  6
Continuous
 62
     7
370
    -3
100
AcDbSpline
210
0.0
220
0.0
230
1.0
 70
    24
 71
     1
 72
     4
 73
     2
 74
     0
 42
0.0000000001
 43
0.0000000001
 40
0.0
 40
0.0
 40
1.0
 40
1.0
 10
15.10612037150777
 20
21.12043160373032
 30
0.0
 10
15.06612036942454
 20
21.12043160373032
 30
0.0
  0
LINE
  5
1E3
330
1F
100
AcDbEntity
  8
0
  6
Continuous
 62
     7
370
    -3
100
AcDbLine
 10
15.05774636324498
 20
-13.73162679565033
 30
0.0
 11
15.06012036727861
 21
-13.73400159488312
 31
0.0
  0
CIRCLE
  5
1E4
330
1F
100
AcDbEntity
  8
0
  6
Continuous
 62
     7
370
    -3
100
AcDbCircle
 10
14.73112036734124
 20
3.679809825948035
 30
0.0
 40
0.0470000000000011
  0
CIRCLE
  5
1E5
330
1F
100
AcDbEntity
  8
0
  6
Continuous
 62
     7
370
    -3
100
AcDbCircle
 10
14.7311203673413
 20
19.17980982594802
 30
0.0
 40
0.0470000000000006
  0
CIRCLE
  5
1E6
330
1F
100
AcDbEntity
  8
0
  6
Continuous
 62
     7
370
    -3
100
AcDbCircle
 10
14.73112036734118
 20
-11.82019017405197
 30
0.0
 40
0.0470000000000006
  0
LINE
  5
1E7
330
1F
100
AcDbEntity
  8
0
  6
Continuous
 62
     7
370
    -3
100
AcDbLine
 10
15.0477463627243
 20
21.08124624306962
 30
0.0
 11
15.06012036727875
 21
21.09362124677919
 31
0.0
  0
LINE
  5
1E8
330
1F
100
AcDbEntity
  8
0
  6
Continuous
 62
     7
370
    -3
100
AcDbLine
 10
15.10612037150777
 20
21.12043160373032
 30
0.0
 11
15.10612037150777
 21
21.02287241074245
 31
0.0
  0
LINE
  5
1E9
330
1F
100
AcDbEntity
  8
0
  6
Continuous
 62
     7
370
    -3
100
AcDbLine
 10
15.10612037150764
 20
-13.68325316779994
 30
0.0
 11
15.10612037150764
 21
-13.76081195183425
 31
0.0
  0
SPLINE
  5
1EA
330
1F
100
AcDbEntity
  8
0
  6
Continuous
 62
     7
370
    -3
100
AcDbSpline
210
0.0
220
0.0
230
1.0
 70
     8
 71
     3
 72
    11
 73
     7
 74
     0
 42
0.0000000001
 43
0.0000000001
 40
0.0
 40
0.0
 40
0.0
 40
0.0
 40
0.2500003437955739
 40
0.4999994908773191
 40
0.750003058242994
 40
1.0
 40
1.0
 40
1.0
 40
1.0
 10
15.06012036727861
 20
-13.73400159488312
 30
0.0
 10
15.06614806080751
 20
-13.73623549122149
 30
0.0
 10
15.07820341901165
 20
-13.74070327320493
 30
0.0
 10
15.0934086926693
 20
-13.74740686170835
 30
0.0
 10
15.10404589305616
 20
-13.75411012675577
 30
0.0
 10
15.10542888479925
 20
-13.75857802987646
 30
0.0
 10
15.10612037150764
 20
-13.76081195183425
 30
0.0
  0
SPLINE
  5
1EB
330
1F
100
AcDbEntity
  8
0
  6
Continuous
 62
     7
370
    -3
100
AcDbSpline
210
0.0
220
0.0
230
1.0
 70
    24
 71
     1
 72
     4
 73
     2
 74
     0
 42
0.0000000001
 43
0.0000000001
 40
0.0
 40
0.0
 40
1.0
 40
1.0
 10
15.10612037150764
 20
-13.76081195183425
 30
0.0
 10
15.06612036942441
 20
-13.76081195183425
 30
0.0
  0
SPLINE
  5
1EC
330
1F
100
AcDbEntity
  8
0
  6
Continuous
 62
     7
370
    -3
100
AcDbSpline
210
0.0
220
0.0
230
1.0
 70
     8
 71
     3
 72
     9
 73
     5
 74
     0
 42
0.0000000001
 43
0.0000000001
 40
0.0
 40
0.0
 40
0.0
 40
0.0
 40
0.4999975940590331
 40
1.0
 40
1.0
 40
1.0
 40
1.0
 10
15.06012036727861
 20
-13.73400159488312
 30
0.0
 10
15.06174168842357
 20
-13.73846999845889
 30
0.0
 10
15.06498434631676
 20
-13.74740684861351
 30
0.0
 10
15.06574169384044
 20
-13.75634356975986
 30
0.0
 10
15.06612036942441
 20
-13.76081195183425
 30
0.0
  0
LINE
  5
1ED
330
1F
100
AcDbEntity
  8
0
  6
Continuous
 62
     7
370
    -3
100
AcDbLine
 10
15.06612036942454
 20
21.12043160373032
 30
0.0
 11
15.06612036942454
 21
21.13380979585097
 31
0.0
  0
SPLINE
  5
1EE
330
1F
100
AcDbEntity
  8
0
  6
Continuous
 62
     7
370
    -3
100
AcDbSpline
210
0.0
220
0.0
230
1.0
 70
    24
 71
     1
 72
     4
 73
     2
 74
     0
 42
0.0000000001
 43
0.0000000001
 40
0.0
 40
0.0
 40
1.0
 40
1.0
 10
15.06612036942454
 20
21.13380979585097
 30
0.0
 10
15.10612037150777
 20
21.13380979585097
 30
0.0
  0
LINE
  5
1EF
330
1F
100
AcDbEntity
  8
0
  6
Continuous
 62
     7
370
    -3
100
AcDbLine
 10
15.10612037150777
 20
21.12043160373032
 30
0.0
 11
15.10612037150777
 21
21.13380979585097
 31
0.0
  0
SPLINE
  5
1F0
330
1F
100
AcDbEntity
  8
0
  6
Continuous
 62
     7
370
    -3
100
AcDbSpline
210
0.0
220
0.0
230
1.0
 70
    24
 71
     1
 72
     4
 73
     2
 74
     0
 42
0.0000000001
 43
0.0000000001
 40
0.0
 40
0.0
 40
1.0
 40
1.0
 10
15.06612036942441
 20
-13.7741901439549
 30
0.0
 10
15.10612037150764
 20
-13.7741901439549
 30
0.0
  0
LINE
  5
1F1
330
1F
100
AcDbEntity
  8
0
  6
Continuous
 62
     7
370
    -3
100
AcDbLine
 10
15.06612036942441
 20
-13.76081195183425
 30
0.0
 11
15.06612036942441
 21
-13.7741901439549
 31
0.0
  0
LINE
  5
1F2
330
1F
100
AcDbEntity
  8
0
  6
Continuous
 62
     7
370
    -3
100
AcDbLine
 10
15.10612037150764
 20
-13.76081195183425
 30
0.0
 11
15.10612037150764
 21
-13.7741901439549
 31
0.0
  0
SPLINE
  5
1F3
330
1F
100
AcDbEntity
  8
0
  6
Continuous
 62
     7
370
    -3
100
AcDbSpline
210
0.0
220
0.0
230
1.0
 70
     8
 71
     3
 72
    11
 73
     7
 74
     0
 42
0.0000000001
 43
0.0000000001
 40
0.0
 40
0.0
 40
0.0
 40
0.0
 40
0.2499996664280041
 40
0.499995246090098
 40
0.7499997299227675
 40
1.0
 40
1.0
 40
1.0
 40
1.0
 10
15.10612037150777
 20
21.13380979585098
 30
0.0
 10
15.10542895021372
 20
21.13983743717638
 30
0.0
 10
15.10404611892833
 20
21.15189262129284
 30
0.0
 10
15.09340823567226
 20
21.16709793961495
 30
0.0
 10
15.07820367584944
 20
21.17773595208306
 30
0.0
 10
15.06614810293647
 20
21.17911851977042
 30
0.0
 10
15.06012036727875
 20
21.17980979778836
 30
0.0
  0
SPLINE
  5
1F4
330
1F
100
AcDbEntity
  8
0
  6
Continuous
 62
     7
370
    -3
100
AcDbSpline
210
0.0
220
0.0
230
1.0
 70
     8
 71
     3
 72
     9
 73
     5
 74
     0
 42
0.0000000001
 43
0.0000000001
 40
0.0
 40
0.0
 40
0.0
 40
0.0
 40
0.499980256201614
 40
1.0
 40
1.0
 40
1.0
 40
1.0
 10
15.06612036942454
 20
21.13380979585098
 30
0.0
 10
15.06574165334354
 20
21.13543113162133
 30
0.0
 10
15.0649841912712
 20
21.1386739312124
 30
0.0
 10
15.0617416846225
 20
21.13943140256789
 30
0.0
 10
15.06012036727875
 20
21.139810153201
 30
0.0
  0
SPLINE
  5
1F5
330
1F
100
AcDbEntity
  8
0
  6
Continuous
 62
     7
370
    -3
100
AcDbSpline
210
0.0
220
0.0
230
1.0
 70
    24
 71
     1
 72
     4
 73
     2
 74
     0
 42
0.0000000001
 43
0.0000000001
 40
0.0
 40
0.0
 40
1.0
 40
1.0
 10
15.06012036727875
 20
21.139810153201
 30
0.0
 10
15.06012036727875
 20
21.17980979778836
 30
0.0
  0
SPLINE
  5
1F6
330
1F
100
AcDbEntity
  8
0
  6
Continuous
 62
     7
370
    -3
100
AcDbSpline
210
0.0
220
0.0
230
1.0
 70
     8
 71
     3
 72
    11
 73
     7
 74
     0
 42
0.0000000001
 43
0.0000000001
 40
0.0
 40
0.0
 40
0.0
 40
0.0
 40
0.2499996664280041
 40
0.499995246090098
 40
0.7499997299227675
 40
1.0
 40
1.0
 40
1.0
 40
1.0
 10
15.10612037150764
 20
-13.7741901439549
 30
0.0
 10
15.10542895021359
 20
-13.78021778528031
 30
0.0
 10
15.1040461189282
 20
-13.79227296939676
 30
0.0
 10
15.09340823567213
 20
-13.80747828771887
 30
0.0
 10
15.07820367584931
 20
-13.818116300187
 30
0.0
 10
15.06614810293635
 20
-13.81949886787435
 30
0.0
 10
15.06012036727861
 20
-13.82019014589229
 30
0.0
  0
SPLINE
  5
1F7
330
1F
100
AcDbEntity
  8
0
  6
Continuous
 62
     7
370
    -3
100
AcDbSpline
210
0.0
220
0.0
230
1.0
 70
    24
 71
     1
 72
     4
 73
     2
 74
     0
 42
0.0000000001
 43
0.0000000001
 40
0.0
 40
0.0
 40
1.0
 40
1.0
 10
15.06012036727861
 20
-13.78019050130493
 30
0.0
 10
15.06012036727861
 20
-13.82019014589229
 30
0.0
  0
SPLINE
  5
1F8
330
1F
100
AcDbEntity
  8
0
  6
Continuous
 62
     7
370
    -3
100
AcDbSpline
210
0.0
220
0.0
230
1.0
 70
     8
 71
     3
 72
     9
 73
     5
 74
     0
 42
0.0000000001
 43
0.0000000001
 40
0.0
 40
0.0
 40
0.0
 40
0.0
 40
0.499980256201614
 40
1.0
 40
1.0
 40
1.0
 40
1.0
 10
15.06612036942441
 20
-13.7741901439549
 30
0.0
 10
15.06574165334342
 20
-13.77581147972525
 30
0.0
 10
15.06498419127107
 20
-13.77905427931633
 30
0.0
 10
15.06174168462236
 20
-13.77981175067182
 30
0.0
 10
15.06012036727861
 20
-13.78019050130493
 30
0.0
  0
LINE
  5
1F9
330
1F
100
AcDbEntity
  8
0
  6
Continuous
 62
     7
370
    -3
100
AcDbLine
 10
14.35612038057167
 20
21.17980979778836
 30
0.0
 11
14.35612038057167
 21
21.16980959331157
 31
0.0
  0
LINE
  5
1FA
330
1F
100
AcDbEntity
  8
0
  6
Continuous
 62
     7
370
    -3
100
AcDbLine
 10
15.06012036727875
 20
21.17980979778836
 30
0.0
 11
14.35612038057167
 21
21.17980979778836
 31
0.0
  0
LINE
  5
1FB
330
1F
100
AcDbEntity
  8
0
  6
Continuous
 62
     7
370
    -3
100
AcDbLine
 10
15.06012036727875
 20
21.139810153201
 30
0.0
 11
14.99666690592355
 21
21.139810153201
 31
0.0
  0
LINE
  5
1FC
330
1F
100
AcDbEntity
  8
0
  6
Continuous
 62
     7
370
    -3
100
AcDbLine
 10
15.06012036727861
 20
-13.82019014589229
 30
0.0
 11
14.9890183001141
 21
-13.82019014589229
 31
0.0
  0
LINE
  5
1FD
330
1F
100
AcDbEntity
  8
0
  6
Continuous
 62
     7
370
    -3
100
AcDbLine
 10
15.06012036727861
 20
-13.78019050130493
 30
0.0
 11
15.0091833599781
 21
-13.78019050130493
 31
0.0
  0
LINE
  5
1FE
330
1F
100
AcDbEntity
  8
0
  6
Continuous
 62
     7
370
    -3
100
AcDbLine
 10
15.06012036727861
 20
-13.7751898124066
 30
0.0
 11
15.01418335909269
 21
-13.7751898124066
 31
0.0
  0
LINE
  5
1FF
330
1F
100
AcDbEntity
  8
0
  6
Continuous
 62
     7
370
    -3
100
AcDbLine
 10
14.99826529287551
 20
21.13480946430277
 30
0.0
 11
15.06012036727875
 21
21.13480946430277
 31
0.0
  0
CIRCLE
  5
200
330
1F
100
AcDbEntity
  8
0
  6
Continuous
 62
     7
370
    -3
100
AcDbCircle
 10
13.06612036734131
 20
20.69980982594798
 30
0.0
 40
0.0469999999999971
  0
CIRCLE
  5
201
330
1F
100
AcDbEntity
  8
0
  6
Continuous
 62
     7
370
    -3
100
AcDbCircle
 10
-0.4338796326586848
 20
20.6998098259481
 30
0.0
 40
0.0470000000000006
  0
CIRCLE
  5
202
330
1F
100
AcDbEntity
  8
0
  6
Continuous
 62
     7
370
    -3
100
AcDbCircle
 10
13.06612036734118
 20
-13.34019017405213
 30
0.0
 40
0.0469999999999988
  0
CIRCLE
  5
203
330
1F
100
AcDbEntity
  8
0
  6
Continuous
 62
     7
370
    -3
100
AcDbCircle
 10
-0.4338796326588159
 20
-13.34019017405192
 30
0.0
 40
0.0469999999999988
  0
LINE
  5
204
330
1F
100
AcDbEntity
  8
0
  6
Continuous
 62
     7
370
    -3
100
AcDbLine
 10
15.02612036734131
 20
21.11980974424743
 30
0.0
 11
15.00918335997823
 21
21.11980974424743
 31
0.0
  0
LINE
  5
205
330
1F
100
AcDbEntity
  8
0
  6
Continuous
 62
     7
370
    -3
100
AcDbLine
 10
15.02612036734131
 20
21.10287287323694
 30
0.0
 11
15.02612036734131
 21
21.11980974424743
 31
0.0
  0
SPLINE
  5
206
330
1F
100
AcDbEntity
  8
0
  6
Continuous
 62
     7
370
    -3
100
AcDbSpline
210
0.0
220
0.0
230
1.0
 70
     8
 71
     3
 72
    10
 73
     6
 74
     0
 42
0.0000000001
 43
0.0000000001
 40
0.0
 40
0.0
 40
0.0
 40
0.0
 40
0.3589807453897902
 40
0.7414401056688702
 40
1.0
 40
1.0
 40
1.0
 40
1.0
 10
15.02612037944182
 20
21.11979801104964
 30
0.0
 10
15.03110179458894
 20
21.11911101542506
 30
0.0
 10
15.04139042711446
 20
21.11769209222369
 30
0.0
 10
15.05380422365583
 20
21.10974687518117
 30
0.0
 10
15.05830496123065
 20
21.10195243789809
 30
0.0
 10
15.06012036727875
 20
21.09880849352234
 30
0.0
  0
CIRCLE
  5
207
330
1F
100
AcDbEntity
  8
0
  6
Continuous
 62
     7
370
    -3
100
AcDbCircle
 10
-0.5138796326583014
 20
21.36980982594829
 30
0.0
 40
0.0470000000000006
  0
CIRCLE
  5
208
330
1F
100
AcDbEntity
  8
0
  6
Continuous
 62
     7
370
    -3
100
AcDbCircle
 10
12.48612036734174
 20
21.36980982594824
 30
0.0
 40
0.0470000000000006
  0
CIRCLE
  5
209
330
1F
100
AcDbEntity
  8
0
  6
Continuous
 62
     7
370
    -3
100
AcDbCircle
 10
12.48612036734179
 20
21.36980982594842
 30
0.0
 40
0.09375
  0
CIRCLE
  5
20A
330
1F
100
AcDbEntity
  8
0
  6
Continuous
 62
     7
370
    -3
100
AcDbCircle
 10
-0.5138796326582228
 20
21.36980982594849
 30
0.0
 40
0.09375
  0
LINE
  5
20B
330
1F
100
AcDbEntity
  8
0
  6
Continuous
 62
     7
370
    -3
100
AcDbLine
 10
14.00283716839617
 20
29.10881036129726
 30
0.0
 11
-2.030595872017151
 21
29.10881036129732
 31
0.0
  0
LINE
  5
20C
330
1F
100
AcDbEntity
  8
0
  6
Continuous
 62
     7
370
    -3
100
AcDbLine
 10
14.00762035314042
 20
29.10402556323832
 30
0.0
 11
14.00283716839617
 21
29.10881036129726
 31
0.0
  0
LINE
  5
20D
330
1F
100
AcDbEntity
  8
0
  6
Continuous
 62
     7
370
    -3
100
AcDbLine
 10
-2.030595872017151
 20
29.10881036129732
 30
0.0
 11
-2.03537949675631
 21
29.10402556323838
 31
0.0
  0
SPLINE
  5
20E
330
1F
100
AcDbEntity
  8
0
  6
Continuous
 62
     7
370
    -3
100
AcDbSpline
210
0.0
220
0.0
230
1.0
 70
     8
 71
     3
 72
    11
 73
     7
 74
     0
 42
0.0000000001
 43
0.0000000001
 40
0.0
 40
0.0
 40
0.0
 40
0.0
 40
0.2500019760551515
 40
0.5000008707257626
 40
0.7500015135108303
 40
1.0
 40
1.0
 40
1.0
 40
1.0
 10
14.04862039950438
 20
29.08454845490621
 30
0.0
 10
14.04800411182597
 20
29.08617154084788
 30
0.0
 10
14.04677154406516
 20
29.08941769272596
 30
0.0
 10
14.03729021840906
 20
29.09428703743651
 30
0.0
 10
14.02373806168683
 20
29.09915625740248
 30
0.0
 10
14.01299290720937
 20
29.10240246595958
 30
0.0
 10
14.00762035314042
 20
29.10402556323833
 30
0.0
  0
LINE
  5
20F
330
1F
100
AcDbEntity
  8
0
  6
Continuous
 62
     7
370
    -3
100
AcDbLine
 10
14.04862039950438
 20
29.08454845490621
 30
0.0
 11
14.04862039950435
 21
21.16980959331159
 31
0.0
  0
LINE
  5
210
330
1F
100
AcDbEntity
  8
0
  6
Continuous
 62
     7
370
    -3
100
AcDbLine
 10
-2.076379983115193
 20
29.08454845490627
 30
0.0
 11
-2.076379983115221
 21
21.16980959331165
 31
0.0
  0
SPLINE
  5
211
330
1F
100
AcDbEntity
  8
0
  6
Continuous
 62
     7
370
    -3
100
AcDbSpline
210
0.0
220
0.0
230
1.0
 70
     8
 71
     3
 72
    11
 73
     7
 74
     0
 42
0.0000000001
 43
0.0000000001
 40
0.0
 40
0.0
 40
0.0
 40
0.0
 40
0.2499916251134617
 40
0.499998555152158
 40
0.7499985086341492
 40
1.0
 40
1.0
 40
1.0
 40
1.0
 10
-2.03537949675631
 20
29.10402556323838
 30
0.0
 10
-2.040751871874325
 20
29.1024024408498
 30
0.0
 10
-2.051496951016575
 20
29.09915609670225
 30
0.0
 10
-2.065049465297787
 20
29.09428711662228
 30
0.0
 10
-2.074531064930774
 20
29.08941769895264
 30
0.0
 10
-2.075763675789984
 20
29.0861715395832
 30
0.0
 10
-2.076379983115193
 20
29.08454845490627
 30
0.0
  0
SPLINE
  5
212
330
1F
100
AcDbEntity
  8
0
  6
Continuous
 62
     7
370
    -3
100
AcDbSpline
210
0.0
220
0.0
230
1.0
 70
     8
 71
     3
 72
    11
 73
     7
 74
     0
 42
0.0000000001
 43
0.0000000001
 40
0.0
 40
0.0
 40
0.0
 40
0.0
 40
0.2500080571305636
 40
0.5000083169577925
 40
0.7499922990765846
 40
1.0
 40
1.0
 40
1.0
 40
1.0
 10
13.99309824756769
 20
29.13780074639786
 30
0.0
 10
13.99390980826819
 20
29.13959189653104
 30
0.0
 10
13.99553290435807
 20
29.14317414093461
 30
0.0
 10
13.99796766162222
 20
29.14690224271842
 30
0.0
 10
14.00040259881626
 20
29.14935535973139
 30
0.0
 10
14.00202561953837
 20
29.14965901354627
 30
0.0
 10
14.00283716839617
 20
29.14981084765615
 30
0.0
  0
SPLINE
  5
213
330
1F
100
AcDbEntity
  8
0
  6
Continuous
 62
     7
370
    -3
100
AcDbSpline
210
0.0
220
0.0
230
1.0
 70
     8
 71
     3
 72
    11
 73
     7
 74
     0
 42
0.0000000001
 43
0.0000000001
 40
0.0
 40
0.0
 40
0.0
 40
0.0
 40
0.2499655477253544
 40
0.4999973954687708
 40
0.7500302810499512
 40
1.0
 40
1.0
 40
1.0
 40
1.0
 10
14.00283716839617
 20
29.10881036129726
 30
0.0
 10
14.00202554185543
 20
29.1114944193193
 30
0.0
 10
14.00040207350085
 20
29.11686324727387
 30
0.0
 10
13.99796776676494
 20
29.1245877953351
 30
0.0
 10
13.99553329359191
 20
29.13178568058032
 30
0.0
 10
13.99390986121161
 20
29.13579589333222
 30
0.0
 10
13.99309824756769
 20
29.13780074639786
 30
0.0
  0
SPLINE
  5
214
330
1F
100
AcDbEntity
  8
0
  6
Continuous
 62
     7
370
    -3
100
AcDbSpline
210
0.0
220
0.0
230
1.0
 70
     8
 71
     3
 72
    11
 73
     7
 74
     0
 42
0.0000000001
 43
0.0000000001
 40
0.0
 40
0.0
 40
0.0
 40
0.0
 40
0.2499698769881051
 40
0.5000022881249889
 40
0.7500342942603515
 40
0.9999999999999998
 40
0.9999999999999998
 40
0.9999999999999998
 40
0.9999999999999998
 10
-2.020857317851093
 20
29.13780074639792
 30
0.0
 10
-2.021668914643492
 20
29.13579589544647
 30
0.0
 10
-2.023292311262807
 20
29.13178569199654
 30
0.0
 10
-2.025726595114619
 20
29.12458778259125
 30
0.0
 10
-2.028160856459456
 20
29.1168632488362
 30
0.0
 10
-2.029784271920302
 20
29.11149441983886
 30
0.0
 10
-2.030595872017151
 20
29.10881036129732
 30
0.0
  0
SPLINE
  5
215
330
1F
100
AcDbEntity
  8
0
  6
Continuous
 62
     7
370
    -3
100
AcDbSpline
210
0.0
220
0.0
230
1.0
 70
     8
 71
     3
 72
    11
 73
     7
 74
     0
 42
0.0000000001
 43
0.0000000001
 40
0.0
 40
0.0
 40
0.0
 40
0.0
 40
0.250007859184508
 40
0.4999919994292963
 40
0.7499917846063151
 40
1.0
 40
1.0
 40
1.0
 40
1.0
 10
-2.030595872017151
 20
29.1498108476562
 30
0.0
 10
-2.029784349602072
 20
29.14965901323025
 30
0.0
 10
-2.0281613817633
 20
29.14935535878329
 30
0.0
 10
-2.025726489978336
 20
29.14690224858214
 30
0.0
 10
-2.023291922045937
 20
29.14317413353452
 30
0.0
 10
-2.021668861704395
 20
29.13959189557582
 30
0.0
 10
-2.020857317851093
 20
29.13780074639792
 30
0.0
  0
LINE
  5
216
330
1F
100
AcDbEntity
  8
0
  6
Continuous
 62
     7
370
    -3
100
AcDbLine
 10
14.00283716839617
 20
29.14981084765615
 30
0.0
 11
-2.030595872017151
 21
29.1498108476562
 31
0.0
  0
SPLINE
  5
217
330
1F
100
AcDbEntity
  8
0
  6
Continuous
 62
     7
370
    -3
100
AcDbSpline
210
0.0
220
0.0
230
1.0
 70
    24
 71
     1
 72
     4
 73
     2
 74
     0
 42
0.0000000001
 43
0.0000000001
 40
0.0
 40
0.0
 40
1.0
 40
1.0
 10
14.00283716839617
 20
29.10981002974901
 30
0.0
 10
14.00283716839617
 20
29.14981084765615
 30
0.0
  0
SPLINE
  5
218
330
1F
100
AcDbEntity
  8
0
  6
Continuous
 62
     7
370
    -3
100
AcDbSpline
210
0.0
220
0.0
230
1.0
 70
    24
 71
     1
 72
     4
 73
     2
 74
     0
 42
0.0000000001
 43
0.0000000001
 40
0.0
 40
0.0
 40
1.0
 40
1.0
 10
-2.030595872017151
 20
29.1498108476562
 30
0.0
 10
-2.030595872017151
 20
29.10981002974907
 30
0.0
  0
LINE
  5
219
330
1F
100
AcDbEntity
  8
0
  6
Continuous
 62
     7
370
    -3
100
AcDbLine
 10
14.00283716839617
 20
29.10981002974901
 30
0.0
 11
14.00762035314042
 21
29.10981002974901
 31
0.0
  0
LINE
  5
21A
330
1F
100
AcDbEntity
  8
0
  6
Continuous
 62
     7
370
    -3
100
AcDbLine
 10
14.00283716839617
 20
29.14981084765615
 30
0.0
 11
14.00762035314042
 21
29.14981084765615
 31
0.0
  0
SPLINE
  5
21B
330
1F
100
AcDbEntity
  8
0
  6
Continuous
 62
     7
370
    -3
100
AcDbSpline
210
0.0
220
0.0
230
1.0
 70
    24
 71
     1
 72
     4
 73
     2
 74
     0
 42
0.0000000001
 43
0.0000000001
 40
0.0
 40
0.0
 40
1.0
 40
1.0
 10
14.00762035314042
 20
29.14981084765615
 30
0.0
 10
14.00762035314042
 20
29.10981002974901
 30
0.0
  0
LINE
  5
21C
330
1F
100
AcDbEntity
  8
0
  6
Continuous
 62
     7
370
    -3
100
AcDbLine
 10
-2.03537949675631
 20
29.1498108476562
 30
0.0
 11
-2.030595872017151
 21
29.1498108476562
 31
0.0
  0
SPLINE
  5
21D
330
1F
100
AcDbEntity
  8
0
  6
Continuous
 62
     7
370
    -3
100
AcDbSpline
210
0.0
220
0.0
230
1.0
 70
    24
 71
     1
 72
     4
 73
     2
 74
     0
 42
0.0000000001
 43
0.0000000001
 40
0.0
 40
0.0
 40
1.0
 40
1.0
 10
-2.03537949675631
 20
29.10981002974907
 30
0.0
 10
-2.03537949675631
 20
29.1498108476562
 30
0.0
  0
LINE
  5
21E
330
1F
100
AcDbEntity
  8
0
  6
Continuous
 62
     7
370
    -3
100
AcDbLine
 10
-2.03537949675631
 20
29.10981002974907
 30
0.0
 11
-2.030595872017151
 21
29.10981002974907
 31
0.0
  0
SPLINE
  5
21F
330
1F
100
AcDbEntity
  8
0
  6
Continuous
 62
     7
370
    -3
100
AcDbSpline
210
0.0
220
0.0
230
1.0
 70
    24
 71
     1
 72
     4
 73
     2
 74
     0
 42
0.0000000001
 43
0.0000000001
 40
0.0
 40
0.0
 40
1.0
 40
1.0
 10
14.00862038825459
 20
29.10881036129726
 30
0.0
 10
14.04862039950438
 20
29.10881036129726
 30
0.0
  0
SPLINE
  5
220
330
1F
100
AcDbEntity
  8
0
  6
Continuous
 62
     7
370
    -3
100
AcDbSpline
210
0.0
220
0.0
230
1.0
 70
     8
 71
     3
 72
    11
 73
     7
 74
     0
 42
0.0000000001
 43
0.0000000001
 40
0.0
 40
0.0
 40
0.0
 40
0.0
 40
0.2500005461506713
 40
0.5000134895611929
 40
0.7500058305400487
 40
0.9999999999999998
 40
0.9999999999999998
 40
0.9999999999999998
 40
0.9999999999999998
 10
14.00762035314042
 20
29.14981084765615
 30
0.0
 10
14.01299297244138
 20
29.14919461456449
 30
0.0
 10
14.02373847746575
 20
29.14796211782285
 30
0.0
 10
14.03728963253562
 20
29.13847918823946
 30
0.0
 10
14.04677161438083
 20
29.12492763246356
 30
0.0
 10
14.04800413629406
 20
29.11418279811754
 30
0.0
 10
14.04862039950438
 20
29.10881036129726
 30
0.0
  0
SPLINE
  5
221
330
1F
100
AcDbEntity
  8
0
  6
Continuous
 62
     7
370
    -3
100
AcDbSpline
210
0.0
220
0.0
230
1.0
 70
     8
 71
     3
 72
    11
 73
     7
 74
     0
 42
0.0000000001
 43
0.0000000001
 40
0.0
 40
0.0
 40
0.0
 40
0.0
 40
0.2499936848569663
 40
0.4999870847747224
 40
0.7500063151430338
 40
1.0
 40
1.0
 40
1.0
 40
1.0
 10
-2.076379983115195
 20
29.10881036129732
 30
0.0
 10
-2.075763700256725
 20
29.11418280074561
 30
0.0
 10
-2.074531135242212
 20
29.12492767351876
 30
0.0
 10
-2.065048879428857
 20
29.13847933219536
 30
0.0
 10
-2.051497366770165
 20
29.14796192454248
 30
0.0
 10
-2.040751937100658
 20
29.1491945609433
 30
0.0
 10
-2.03537949675631
 20
29.1498108476562
 30
0.0
  0
SPLINE
  5
222
330
1F
100
AcDbEntity
  8
0
  6
Continuous
 62
     7
370
    -3
100
AcDbSpline
210
0.0
220
0.0
230
1.0
 70
    24
 71
     1
 72
     4
 73
     2
 74
     0
 42
0.0000000001
 43
0.0000000001
 40
0.0
 40
0.0
 40
1.0
 40
1.0
 10
-2.076379983115193
 20
29.10881036129732
 30
0.0
 10
-2.036379165208054
 20
29.10881036129732
 30
0.0
  0
LINE
  5
223
330
1F
100
AcDbEntity
  8
0
  6
Continuous
 62
     7
370
    -3
100
AcDbLine
 10
14.04862039950438
 20
29.10881036129726
 30
0.0
 11
14.04862039950438
 21
29.08454845490621
 31
0.0
  0
LINE
  5
224
330
1F
100
AcDbEntity
  8
0
  6
Continuous
 62
     7
370
    -3
100
AcDbLine
 10
-2.076379983115193
 20
29.08454845490627
 30
0.0
 11
-2.076379983115193
 21
29.10881036129732
 31
0.0
  0
LINE
  5
225
330
1F
100
AcDbEntity
  8
0
  6
Continuous
 62
     7
370
    -3
100
AcDbLine
 10
-2.598879227159496
 20
-13.76019009235129
 30
0.0
 11
-2.564879939922164
 21
-13.76019009235129
 31
0.0
  0
LINE
  5
226
330
1F
100
AcDbEntity
  8
0
  6
Continuous
 62
     7
370
    -3
100
AcDbLine
 10
-2.598879227159496
 20
-13.76019009235129
 30
0.0
 11
-2.598879227159496
 21
-13.65925291171955
 31
0.0
  0
LINE
  5
227
330
1F
100
AcDbEntity
  8
0
  6
Continuous
 62
     7
370
    -3
100
AcDbLine
 10
-2.564879939922164
 20
-13.76019009235129
 30
0.0
 11
-2.564879939922164
 21
-13.69225370382492
 31
0.0
  0
LINE
  5
228
330
1F
100
AcDbEntity
  8
0
  6
Continuous
 62
     7
370
    -3
100
AcDbLine
 10
-2.615879457437925
 20
20.99887332798196
 30
0.0
 11
-2.615879457437925
 21
21.11980974424749
 31
0.0
  0
LINE
  5
229
330
1F
100
AcDbEntity
  8
0
  6
Continuous
 62
     7
370
    -3
100
AcDbLine
 10
-2.615879457437925
 20
21.11980974424749
 30
0.0
 11
-2.581880170200593
 21
21.11980974424749
 31
0.0
  0
LINE
  5
22A
330
1F
100
AcDbEntity
  8
0
  6
Continuous
 62
     7
370
    -3
100
AcDbLine
 10
-2.581880170200593
 20
21.01487271648899
 30
0.0
 11
-2.581880170200593
 21
21.11980974424749
 31
0.0
  0
LINE
  5
22B
330
1F
100
AcDbEntity
  8
0
  6
Continuous
 62
     7
370
    -3
100
AcDbLine
 10
-2.547879709643481
 20
21.0488731770461
 30
0.0
 11
-2.547879709643481
 21
21.11980974424749
 31
0.0
  0
LINE
  5
22C
330
1F
100
AcDbEntity
  8
0
  6
Continuous
 62
     7
370
    -3
100
AcDbLine
 10
-2.547879709643481
 20
21.11980974424749
 30
0.0
 11
-2.513879249086369
 21
21.11980974424749
 31
0.0
  0
LINE
  5
22D
330
1F
100
AcDbEntity
  8
0
  6
Continuous
 62
     7
370
    -3
100
AcDbLine
 10
-2.513879249086369
 20
21.08287246428344
 30
0.0
 11
-2.513879249086369
 21
21.11980974424749
 31
0.0
  0
LINE
  5
22E
330
1F
100
AcDbEntity
  8
0
  6
Continuous
 62
     7
370
    -3
100
AcDbLine
 10
-2.530879479365052
 20
-13.76019009235129
 30
0.0
 11
-2.496942378076009
 21
-13.76019009235129
 31
0.0
  0
LINE
  5
22F
330
1F
100
AcDbEntity
  8
0
  6
Continuous
 62
     7
370
    -3
100
AcDbLine
 10
-2.530879479365052
 20
-13.76019009235129
 30
0.0
 11
-2.530879479365052
 21
-13.72625299106225
 31
0.0
  0
LINE
  5
230
330
1F
100
AcDbEntity
  8
0
  6
Continuous
 62
     7
370
    -3
100
AcDbLine
 10
12.6646204209235
 20
10.81074643542649
 30
0.0
 11
12.6646204209235
 21
10.82355322081474
 31
0.0
  0
LINE
  5
231
330
1F
100
AcDbEntity
  8
0
  6
Continuous
 62
     7
370
    -3
100
AcDbLine
 10
12.91462039956909
 20
10.81074643542649
 30
0.0
 11
12.91462039956909
 21
10.82355322081474
 31
0.0
  0
LINE
  5
232
330
1F
100
AcDbEntity
  8
0
  6
Continuous
 62
     7
370
    -3
100
AcDbLine
 10
13.94512039514511
 20
-14.01618969502209
 30
0.0
 11
13.94512039514511
 21
-13.86445128791712
 31
0.0
  0
LINE
  5
233
330
1F
100
AcDbEntity
  8
0
  6
Continuous
 62
     7
370
    -3
100
AcDbLine
 10
-1.9728790987664
 20
-13.86445128791706
 30
0.0
 11
-1.9728790987664
 21
-14.01618969502203
 31
0.0
  0
LINE
  5
234
330
1F
100
AcDbEntity
  8
0
  6
Continuous
 62
     7
370
    -3
100
AcDbLine
 10
15.17112037145546
 20
-5.460189921328251
 30
0.0
 11
19.41012030966644
 21
-5.460189921328269
 31
0.0
  0
LINE
  5
235
330
1F
100
AcDbEntity
  8
0
  6
Continuous
 62
     7
370
    -3
100
AcDbLine
 10
15.17112037145546
 20
-6.669189768192188
 30
0.0
 11
20.11912019923922
 21
-6.669189768192208
 31
0.0
  0
LINE
  5
236
330
1F
100
AcDbEntity
  8
0
  6
Continuous
 62
     7
370
    -3
100
AcDbLine
 10
23.91901427587192
 20
-5.429190226106088
 30
0.0
 11
23.29401381593057
 21
-5.429190226106086
 31
0.0
  0
LINE
  5
237
330
1F
100
AcDbEntity
  8
0
  6
Continuous
 62
     7
370
    -3
100
AcDbLine
 10
22.9190143612896
 20
-5.429190226106085
 30
0.0
 11
22.29401390134825
 21
-5.429190226106082
 31
0.0
  0
LINE
  5
238
330
1F
100
AcDbEntity
  8
0
  6
Continuous
 62
     7
370
    -3
100
AcDbLine
 10
15.17112037145546
 20
-5.344190248033058
 30
0.0
 11
31.45262074034051
 21
-5.344190248033117
 31
0.0
  0
LINE
  5
239
330
1F
100
AcDbEntity
  8
0
  6
Continuous
 62
     7
370
    -3
100
AcDbLine
 10
15.17112037145553
 20
12.66981002603191
 30
0.0
 11
31.41012075130408
 21
12.66981002603185
 31
0.0
  0
LINE
  5
23A
330
1F
100
AcDbEntity
  8
0
  6
Continuous
 62
     7
370
    -3
100
AcDbLine
 10
15.06012036727861
 20
-13.73400159488312
 30
0.0
 11
15.06012036727861
 21
-13.72925316973733
 31
0.0
  0
LINE
  5
23B
330
1F
100
AcDbEntity
  8
0
  6
Continuous
 62
     7
370
    -3
100
AcDbLine
 10
15.06012036727875
 20
21.06887241267983
 30
0.0
 11
15.06012036727875
 21
21.09362124677919
 31
0.0
  0
LINE
  5
23C
330
1F
100
AcDbEntity
  8
0
  6
Continuous
 62
     7
370
    -3
100
AcDbLine
 10
15.06012036727875
 20
21.13480946430277
 30
0.0
 11
15.06012036727875
 21
21.09880849352239
 31
0.0
  0
LINE
  5
23D
330
1F
100
AcDbEntity
  8
0
  6
Continuous
 62
     7
370
    -3
100
AcDbLine
 10
15.06012036727861
 20
-13.73918884162621
 30
0.0
 11
15.06012036727861
 21
-13.7751898124066
 31
0.0
  0
LINE
  5
23E
330
1F
100
AcDbEntity
  8
0
  6
Continuous
 62
     7
370
    -3
100
AcDbLine
 10
14.00762035314039
 20
21.16980959331159
 30
0.0
 11
14.00762035314042
 21
29.10402556323832
 31
0.0
  0
LINE
  5
23F
330
1F
100
AcDbEntity
  8
0
  6
Continuous
 62
     7
370
    -3
100
AcDbLine
 10
-2.03537949675631
 20
29.10402556323838
 30
0.0
 11
-2.035379496756338
 21
21.16980959331165
 31
0.0
  0
LINE
  5
256
330
1F
100
AcDbEntity
  8
0
370
    18
100
AcDbLine
 10
-13.86258176576205
 20
-1.911788141198506
 30
0.0
 11
-7.626629385797684
 21
3.464079899486449
 31
0.0
  0
LINE
  5
257
330
1F
100
AcDbEntity
  8
0
370
    18
100
AcDbLine
 10
-13.86258176576205
 20
8.839947940171413
 30
0.0
 11
-7.626629385797684
 21
3.464079899486449
 31
0.0
  0
LINE
  5
258
330
1F
100
AcDbEntity
  8
0
370
    18
100
AcDbLine
 10
-13.86258176576205
 20
5.634119955774252
 30
0.0
 11
-13.86258176576205
 21
8.839947940171413
 31
0.0
  0
MTEXT
  5
259
330
1F
100
AcDbEntity
  8
0
  6
Continuous
 62
     0
370
    18
100
AcDbMText
 10
-21.79471748391819
 20
4.83421203601685
 30
0.0
 40
2.381249999999999
 41
0.0
 71
     1
 72
     1
  1
{\fVerdana|b0|i0|c0|p34;AIRFLOW}
  7
SLDTEXTSTYLE0
 73
     1
 44
1.0
  0
LINE
  5
25A
330
1F
100
AcDbEntity
  8
0
370
    18
100
AcDbLine
 10
-22.7553926255602
 20
1.294039843198653
 30
0.0
 11
-13.86258176576205
 21
1.294039843198653
 31
0.0
  0
LINE
  5
25B
330
1F
100
AcDbEntity
  8
0
370
    18
100
AcDbLine
 10
-22.7553926255602
 20
5.634119955774252
 30
0.0
 11
-13.86258176576205
 21
5.634119955774252
 31
0.0
  0
LINE
  5
25C
330
1F
100
AcDbEntity
  8
0
370
    18
100
AcDbLine
 10
-22.7553926255602
 20
1.294039843198653
 30
0.0
 11
-22.7553926255602
 21
5.634119955774252
 31
0.0
  0
LINE
  5
25D
330
1F
100
AcDbEntity
  8
0
370
    18
100
AcDbLine
 10
-13.86258176576205
 20
1.294039843198653
 30
0.0
 11
-13.86258176576205
 21
-1.911788141198506
 31
0.0
  0
MTEXT
  5
263
330
1F
100
AcDbEntity
  8
0
  6
Continuous
 62
     0
370
    18
100
AcDbMText
 10
0.5842054139353366
 20
13.92164241693544
 30
0.0
 40
2.381249999999999
 41
0.0
 71
     1
 72
     1
  1
{\fVerdana|b0|i0|c0|p34;PFC\PSZ 10-14\PELEC HT}
  7
SLDTEXTSTYLE0
 73
     1
 44
1.0
  0
ENDSEC
  0
SECTION
  2
OBJECTS
  0
DICTIONARY
  5
C
330
0
100
AcDbDictionary
281
     1
  3
ACAD_GROUP
350
D
  3
ACAD_PLOTSTYLENAME
350
E
  3
ACAD_MLINESTYLE
350
17
  3
ACAD_PLOTSETTINGS
350
19
  3
ACAD_LAYOUT
350
1A
  3
ACAD_VISUALSTYLE
350
2A
  3
ACAD_SCALELIST
350
3B
  3
AcDbVariableDictionary
350
241
  3
ACAD_TABLESTYLE
350
243
  3
ACAD_MLEADERSTYLE
350
244
  0
DICTIONARY
  5
D
102
{ACAD_REACTORS
330
C
102
}
330
C
100
AcDbDictionary
281
     1
  0
ACDBDICTIONARYWDFLT
  5
E
102
{ACAD_REACTORS
330
C
102
}
330
C
100
AcDbDictionary
281
     1
  3
Normal
350
F
100
AcDbDictionaryWithDefault
340
F
  0
DICTIONARY
  5
17
102
{ACAD_REACTORS
330
C
102
}
330
C
100
AcDbDictionary
281
     1
  3
Standard
350
18
  0
DICTIONARY
  5
19
102
{ACAD_REACTORS
330
C
102
}
330
C
100
AcDbDictionary
281
     1
  0
DICTIONARY
  5
1A
102
{ACAD_REACTORS
330
C
102
}
330
C
100
AcDbDictionary
281
     1
  3
Layout1
350
1E
  3
Model
350
22
  3
Layout2
350
26
  0
DICTIONARY
  5
2A
102
{ACAD_REACTORS
330
C
102
}
330
C
100
AcDbDictionary
281
     1
  3
Flat
350
2B
  3
FlatWithEdges
350
2C
  3
Gouraud
350
2D
  3
GouraudWithEdges
350
2E
  3
2dWireframe
350
2F
  3
3dWireframe
350
30
  3
3D Hidden
350
31
  3
Basic
350
32
  3
Realistic
350
33
  3
Conceptual
350
34
  3
Dim
350
35
  3
Brighten
350
36
  3
Thicken
350
37
  3
Linepattern
350
38
  3
Facepattern
350
39
  3
ColorChange
350
3A
  0
DICTIONARY
  5
3B
102
{ACAD_REACTORS
330
C
102
}
330
C
100
AcDbDictionary
281
     1
  3
A0
350
3C
  3
A1
350
3D
  3
A2
350
3E
  3
A3
350
3F
  3
A4
350
40
  3
A5
350
41
  3
A6
350
42
  3
A7
350
43
  3
A8
350
44
  3
A9
350
45
  3
B0
350
46
  3
B1
350
47
  3
B2
350
48
  3
B3
350
49
  3
B4
350
4A
  3
B5
350
4B
  3
B6
350
4C
  3
B7
350
4D
  3
B8
350
4E
  3
B9
350
4F
  3
C0
350
50
  3
C1
350
51
  3
C2
350
52
  3
C3
350
53
  3
C4
350
54
  3
C5
350
55
  3
C6
350
56
  3
C7
350
57
  3
C8
350
58
  3
C9
350
59
  3
D0
350
5A
  3
D1
350
5B
  3
D2
350
5C
  0
DICTIONARY
  5
241
102
{ACAD_REACTORS
330
C
102
}
330
C
100
AcDbDictionary
281
     1
  3
CANNOSCALE
350
242
  0
DICTIONARY
  5
243
102
{ACAD_REACTORS
330
C
102
}
330
C
100
AcDbDictionary
281
     1
  0
DICTIONARY
  5
244
102
{ACAD_REACTORS
330
C
102
}
330
C
100
AcDbDictionary
281
     1
  0
ACDBPLACEHOLDER
  5
F
102
{ACAD_REACTORS
330
E
102
}
330
E
  0
MLINESTYLE
  5
18
102
{ACAD_REACTORS
330
17
102
}
330
17
100
AcDbMlineStyle
  2
STANDARD
 70
     0
  3

 62
   256
 51
90.0
 52
90.0
 71
     2
 49
0.5
 62
   256
  6
BYLAYER
 49
-0.5
 62
   256
  6
BYLAYER
  0
LAYOUT
  5
1E
102
{ACAD_REACTORS
330
1A
102
}
330
1A
100
AcDbPlotSettings
  1

  2
none_device
  4

  6

 40
0.0
 41
0.0
 42
0.0
 43
0.0
 44
0.0
 45
0.0
 46
0.0
 47
0.0
 48
0.0
 49
0.0
140
0.0
141
0.0
142
1.0
143
1.0
 70
   688
 72
     0
 73
     0
 74
     5
  7

 75
    16
147
1.0
148
0.0
149
0.0
100
AcDbLayout
  1
Layout1
 70
     1
 71
     1
 10
0.0
 20
0.0
 11
12.0
 21
9.0
 12
0.0
 22
0.0
 32
0.0
 14
1.000000000000000E+20
 24
1.000000000000000E+20
 34
1.000000000000000E+20
 15
-1.000000000000000E+20
 25
-1.000000000000000E+20
 35
-1.000000000000000E+20
146
0.0
 13
0.0
 23
0.0
 33
0.0
 16
1.0
 26
0.0
 36
0.0
 17
0.0
 27
1.0
 37
0.0
 76
     0
330
1B
  0
LAYOUT
  5
22
102
{ACAD_REACTORS
330
1A
102
}
330
1A
100
AcDbPlotSettings
  1

  2
none_device
  4

  6

 40
0.0
 41
0.0
 42
0.0
 43
0.0
 44
0.0
 45
0.0
 46
0.0
 47
0.0
 48
0.0
 49
0.0
140
0.0
141
0.0
142
1.0
143
1.0
 70
  1712
 72
     0
 73
     0
 74
     0
  7

 75
     0
147
1.0
148
0.0
149
0.0
100
AcDbLayout
  1
Model
 70
     1
 71
     0
 10
0.0
 20
0.0
 11
11.0
 21
8.5
 12
0.0
 22
0.0
 32
0.0
 14
0.0
 24
0.0
 34
0.0
 15
11.0
 25
8.5
 35
0.0
146
0.0
 13
0.0
 23
0.0
 33
0.0
 16
1.0
 26
0.0
 36
0.0
 17
0.0
 27
1.0
 37
0.0
 76
     0
330
1F
  0
LAYOUT
  5
26
102
{ACAD_REACTORS
330
1A
102
}
330
1A
100
AcDbPlotSettings
  1

  2
none_device
  4

  6

 40
0.0
 41
0.0
 42
0.0
 43
0.0
 44
0.0
 45
0.0
 46
0.0
 47
0.0
 48
0.0
 49
0.0
140
0.0
141
0.0
142
1.0
143
1.0
 70
   688
 72
     0
 73
     0
 74
     5
  7

 75
    16
147
1.0
148
0.0
149
0.0
100
AcDbLayout
  1
Layout2
 70
     1
 71
     2
 10
0.0
 20
0.0
 11
0.0
 21
0.0
 12
0.0
 22
0.0
 32
0.0
 14
0.0
 24
0.0
 34
0.0
 15
0.0
 25
0.0
 35
0.0
146
0.0
 13
0.0
 23
0.0
 33
0.0
 16
1.0
 26
0.0
 36
0.0
 17
0.0
 27
1.0
 37
0.0
 76
     0
330
23
  0
ACAD_PROXY_OBJECT
  5
2B
102
{ACAD_REACTORS
330
2A
102
}
330
2A
100
AcDbProxyObject
 90
      499
 91
      501
 95
   393239
 70
     0
 93
      388
310
41119B185D240901404333333333333E3BF0000000000000F9010740A41107004050150841D405064090741402480A1B50
 94
        0
1001
ACAD
1000
AcDbSavedByObjectVersion
1070
     0
  0
ACAD_PROXY_OBJECT
  5
2C
102
{ACAD_REACTORS
330
2A
102
}
330
2A
100
AcDbProxyObject
 90
      499
 91
      501
 95
   393239
 70
     0
 93
      476
310
43519B185D15DA5D1A115919D95CD0140901404333333333333E3BF0000000000000F9010740901411070040501600405405064090741402480A1B50
 94
        0
1001
ACAD
1000
AcDbSavedByObjectVersion
1070
     0
  0
ACAD_PROXY_OBJECT
  5
2D
102
{ACAD_REACTORS
330
2A
102
}
330
2A
100
AcDbProxyObject
 90
      499
 91
      501
 95
   393239
 70
     0
 93
      412
310
41D1DBDD5C985D5910240902404333333333333E3BF0000000000000F9010740A411070040501641D405064090741402480A1B50
 94
        0
1001
ACAD
1000
AcDbSavedByObjectVersion
1070
     0
  0
ACAD_PROXY_OBJECT
  5
2E
102
{ACAD_REACTORS
330
2A
102
}
330
2A
100
AcDbProxyObject
 90
      499
 91
      501
 95
   393239
 70
     0
 93
      500
310
4411DBDD5C985D5915DA5D1A115919D95CD0340902404333333333333E3BF0000000000000F9010740901411070040501600405405064090741402480A1B50
 94
        0
1001
ACAD
1000
AcDbSavedByObjectVersion
1070
     0
  0
ACAD_PROXY_OBJECT
  5
2F
102
{ACAD_REACTORS
330
2A
102
}
330
2A
100
AcDbProxyObject
 90
      499
 91
      501
 95
   393239
 70
     0
 93
      436
310
42CC9915DA5C99599C985B595049028333333333333E3BF0000000000000FB0107901411070040501600405405064090741402480A0340
 94
        0
1001
ACAD
1000
AcDbSavedByObjectVersion
1070
     0
  0
ACAD_PROXY_OBJECT
  5
30
102
{ACAD_REACTORS
330
2A
102
}
330
2A
100
AcDbProxyObject
 90
      499
 91
      501
 95
   393239
 70
     0
 93
      436
310
42CCD915DA5C99599C985B595059028333333333333E3BF0000000000000FB0107901411070040501600405405064090741402480A0340
 94
        0
1001
ACAD
1000
AcDbSavedByObjectVersion
1070
     0
  0
ACAD_PROXY_OBJECT
  5
31
102
{ACAD_REACTORS
330
2A
102
}
330
2A
100
AcDbProxyObject
 90
      499
 91
      501
 95
   393239
 70
     0
 93
      500
310
424CD108121A5919195B90640502408333333333333E3BF0000000000000FB01079024090700405020000000000001110200405405064090740C02480A0340
 94
        0
1001
ACAD
1000
AcDbSavedByObjectVersion
1070
     0
  0
ACAD_PROXY_OBJECT
  5
32
102
{ACAD_REACTORS
330
2A
102
}
330
2A
100
AcDbProxyObject
 90
      499
 91
      501
 95
   393239
 70
     0
 93
      388
310
4150985CDA58D07406404333333333333E3BF0000000000000FB0107A41107004050150841D405064090741402480A0352
 94
        0
1001
ACAD
1000
AcDbSavedByObjectVersion
1070
     0
  0
ACAD_PROXY_OBJECT
  5
33
102
{ACAD_REACTORS
330
2A
102
}
330
2A
100
AcDbProxyObject
 90
      499
 91
      501
 95
   393239
 70
     0
 93
      420
310
425499585B1A5CDD1A58D08409028333333333333E3BF0000000000000FB01079019070040501508421405064090741402480A1B45
 94
        0
1001
ACAD
1000
AcDbSavedByObjectVersion
1070
     0
  0
ACAD_PROXY_OBJECT
  5
34
102
{ACAD_REACTORS
330
2A
102
}
330
2A
100
AcDbProxyObject
 90
      499
 91
      501
 95
   393239
 70
     0
 93
      500
310
4290DBDB98D95C1D1D585B10940D028333333333333E3BF0000000000000FB0107902409070040501000000000000111010841D405064090740C02480A0340
 94
        0
1001
ACAD
1000
AcDbSavedByObjectVersion
1070
     0
  0
ACAD_PROXY_OBJECT
  5
35
102
{ACAD_REACTORS
330
2A
102
}
330
2A
100
AcDbProxyObject
 90
      499
 91
      501
 95
   393239
 70
     0
 93
      412
310
40D11A5B50B409028333333333333E3BF0000000000000FB010790141107004050150841D405064090741402480A02677FFFFFD4
 94
        0
1001
ACAD
1000
AcDbSavedByObjectVersion
1070
     0
  0
ACAD_PROXY_OBJECT
  5
36
102
{ACAD_REACTORS
330
2A
102
}
330
2A
100
AcDbProxyObject
 90
      499
 91
      501
 95
   393239
 70
     0
 93
      428
310
42109C9A59DA1D195B90C409028333333333333E3BF0000000000000FB010790141107004050150841D405064090741402480A029956
 94
        0
1001
ACAD
1000
AcDbSavedByObjectVersion
1070
     0
  0
ACAD_PROXY_OBJECT
  5
37
102
{ACAD_REACTORS
330
2A
102
}
330
2A
100
AcDbProxyObject
 90
      499
 91
      501
 95
   393239
 70
     0
 93
      412
310
41D51A1A58DAD95B90D409028333333333333E3BF0000000000000FB010790141107004050150C41D405064090741402480A0352
 94
        0
1001
ACAD
1000
AcDbSavedByObjectVersion
1070
     0
  0
ACAD_PROXY_OBJECT
  5
38
102
{ACAD_REACTORS
330
2A
102
}
330
2A
100
AcDbProxyObject
 90
      499
 91
      501
 95
   393239
 70
     0
 93
      444
310
42D31A5B995C185D1D195C9B90E409028333333333333E3BF0000000000000FB010790141107004050750841D405064090741402483A0350
 94
        0
1001
ACAD
1000
AcDbSavedByObjectVersion
1070
     0
  0
ACAD_PROXY_OBJECT
  5
39
102
{ACAD_REACTORS
330
2A
102
}
330
2A
100
AcDbProxyObject
 90
      499
 91
      501
 95
   393239
 70
     0
 93
      444
310
42D19858D95C185D1D195C9B90F409028333333333333E3BF0000000000000FB010790141107004050150841D405064090741402480A0350
 94
        0
1001
ACAD
1000
AcDbSavedByObjectVersion
1070
     0
  0
ACAD_PROXY_OBJECT
  5
3A
102
{ACAD_REACTORS
330
2A
102
}
330
2A
100
AcDbProxyObject
 90
      499
 91
      501
 95
   393239
 70
     0
 93
      452
310
42D0DBDB1BDC90DA185B99D95104090240C333333333333E3BF0000000000000FB0108901411070040501508421405064090741402480A0354
 94
        0
1001
ACAD
1000
AcDbSavedByObjectVersion
1070
     0
  0
ACAD_PROXY_OBJECT
  5
3C
102
{ACAD_REACTORS
330
3B
102
}
330
3B
100
AcDbProxyObject
 90
      499
 91
      502
 95
   393239
 70
     0
 93
       41
310
903313A31581
 94
        0
  0
ACAD_PROXY_OBJECT
  5
3D
102
{ACAD_REACTORS
330
3B
102
}
330
3B
100
AcDbProxyObject
 90
      499
 91
      502
 95
   393239
 70
     0
 93
      105
310
903313A324000000000000004000
 94
        0
  0
ACAD_PROXY_OBJECT
  5
3E
102
{ACAD_REACTORS
330
3B
102
}
330
3B
100
AcDbProxyObject
 90
      499
 91
      502
 95
   393239
 70
     0
 93
      105
310
903313A344000000000000104000
 94
        0
  0
ACAD_PROXY_OBJECT
  5
3F
102
{ACAD_REACTORS
330
3B
102
}
330
3B
100
AcDbProxyObject
 90
      499
 91
      502
 95
   393239
 70
     0
 93
      105
310
903313A354000000000000144000
 94
        0
  0
ACAD_PROXY_OBJECT
  5
40
102
{ACAD_REACTORS
330
3B
102
}
330
3B
100
AcDbProxyObject
 90
      499
 91
      502
 95
   393239
 70
     0
 93
      105
310
903313A384000000000000204000
 94
        0
  0
ACAD_PROXY_OBJECT
  5
41
102
{ACAD_REACTORS
330
3B
102
}
330
3B
100
AcDbProxyObject
 90
      499
 91
      502
 95
   393239
 70
     0
 93
      113
310
904313A31304000000000000244000
 94
        0
  0
ACAD_PROXY_OBJECT
  5
42
102
{ACAD_REACTORS
330
3B
102
}
330
3B
100
AcDbProxyObject
 90
      499
 91
      502
 95
   393239
 70
     0
 93
      113
310
904313A31364000000000000304000
 94
        0
  0
ACAD_PROXY_OBJECT
  5
43
102
{ACAD_REACTORS
330
3B
102
}
330
3B
100
AcDbProxyObject
 90
      499
 91
      502
 95
   393239
 70
     0
 93
      113
310
904313A32304000000000000344000
 94
        0
  0
ACAD_PROXY_OBJECT
  5
44
102
{ACAD_REACTORS
330
3B
102
}
330
3B
100
AcDbProxyObject
 90
      499
 91
      502
 95
   393239
 70
     0
 93
      113
310
904313A333040000000000003E4000
 94
        0
  0
ACAD_PROXY_OBJECT
  5
45
102
{ACAD_REACTORS
330
3B
102
}
330
3B
100
AcDbProxyObject
 90
      499
 91
      502
 95
   393239
 70
     0
 93
      113
310
904313A34304000000000000444000
 94
        0
  0
ACAD_PROXY_OBJECT
  5
46
102
{ACAD_REACTORS
330
3B
102
}
330
3B
100
AcDbProxyObject
 90
      499
 91
      502
 95
   393239
 70
     0
 93
      113
310
904313A35304000000000000494000
 94
        0
  0
ACAD_PROXY_OBJECT
  5
47
102
{ACAD_REACTORS
330
3B
102
}
330
3B
100
AcDbProxyObject
 90
      499
 91
      502
 95
   393239
 70
     0
 93
      121
310
905313A3130304000000000000594000
 94
        0
  0
ACAD_PROXY_OBJECT
  5
48
102
{ACAD_REACTORS
330
3B
102
}
330
3B
100
AcDbProxyObject
 90
      499
 91
      502
 95
   393239
 70
     0
 93
      105
310
903323A310000000000000010159
 94
        0
  0
ACAD_PROXY_OBJECT
  5
49
102
{ACAD_REACTORS
330
3B
102
}
330
3B
100
AcDbProxyObject
 90
      499
 91
      502
 95
   393239
 70
     0
 93
      105
310
903343A310000000000000410159
 94
        0
  0
ACAD_PROXY_OBJECT
  5
4A
102
{ACAD_REACTORS
330
3B
102
}
330
3B
100
AcDbProxyObject
 90
      499
 91
      502
 95
   393239
 70
     0
 93
      105
310
903383A310000000000000810159
 94
        0
  0
ACAD_PROXY_OBJECT
  5
4B
102
{ACAD_REACTORS
330
3B
102
}
330
3B
100
AcDbProxyObject
 90
      499
 91
      502
 95
   393239
 70
     0
 93
      113
310
90431303A310000000000000910140
 94
        0
  0
ACAD_PROXY_OBJECT
  5
4C
102
{ACAD_REACTORS
330
3B
102
}
330
3B
100
AcDbProxyObject
 90
      499
 91
      502
 95
   393239
 70
     0
 93
      121
310
9053130303A310000000000001650100
 94
        0
  0
ACAD_PROXY_OBJECT
  5
4D
102
{ACAD_REACTORS
330
3B
102
}
330
3B
100
AcDbProxyObject
 90
      499
 91
      502
 95
   393239
 70
     0
 93
      257
310
90E312F31323822203D2031272D3022000000000000200FC000000000000284000
 94
        0
  0
ACAD_PROXY_OBJECT
  5
4E
102
{ACAD_REACTORS
330
3B
102
}
330
3B
100
AcDbProxyObject
 90
      499
 91
      502
 95
   393239
 70
     0
 93
      249
310
90D312F363422203D2031272D3022000000000000240FC000000000000284040
 94
        0
  0
ACAD_PROXY_OBJECT
  5
4F
102
{ACAD_REACTORS
330
3B
102
}
330
3B
100
AcDbProxyObject
 90
      499
 91
      502
 95
   393239
 70
     0
 93
      249
310
90D312F333222203D2031272D3022000000000000280FC000000000000284040
 94
        0
  0
ACAD_PROXY_OBJECT
  5
50
102
{ACAD_REACTORS
330
3B
102
}
330
3B
100
AcDbProxyObject
 90
      499
 91
      502
 95
   393239
 70
     0
 93
      249
310
90D312F313622203D2031272D30220000000000002C0FC000000000000284040
 94
        0
  0
ACAD_PROXY_OBJECT
  5
51
102
{ACAD_REACTORS
330
3B
102
}
330
3B
100
AcDbProxyObject
 90
      499
 91
      502
 95
   393239
 70
     0
 93
      249
310
90D332F333222203D2031272D30220000000000002E0FC000000000000284040
 94
        0
  0
ACAD_PROXY_OBJECT
  5
52
102
{ACAD_REACTORS
330
3B
102
}
330
3B
100
AcDbProxyObject
 90
      499
 91
      502
 95
   393239
 70
     0
 93
      241
310
90C312F3822203D2031272D3022000000000000300FC000000000000284040
 94
        0
  0
ACAD_PROXY_OBJECT
  5
53
102
{ACAD_REACTORS
330
3B
102
}
330
3B
100
AcDbProxyObject
 90
      499
 91
      502
 95
   393239
 70
     0
 93
      249
310
90D332F313622203D2031272D3022000000000000320FC000000000000284040
 94
        0
  0
ACAD_PROXY_OBJECT
  5
54
102
{ACAD_REACTORS
330
3B
102
}
330
3B
100
AcDbProxyObject
 90
      499
 91
      502
 95
   393239
 70
     0
 93
      241
310
90C312F3422203D2031272D3022000000000000340FC000000000000284040
 94
        0
  0
ACAD_PROXY_OBJECT
  5
55
102
{ACAD_REACTORS
330
3B
102
}
330
3B
100
AcDbProxyObject
 90
      499
 91
      502
 95
   393239
 70
     0
 93
      241
310
90C332F3822203D2031272D3022000000000000360FC000000000000284040
 94
        0
  0
ACAD_PROXY_OBJECT
  5
56
102
{ACAD_REACTORS
330
3B
102
}
330
3B
100
AcDbProxyObject
 90
      499
 91
      502
 95
   393239
 70
     0
 93
      241
310
90C312F3222203D2031272D3022000000000000380FC000000000000284040
 94
        0
  0
ACAD_PROXY_OBJECT
  5
57
102
{ACAD_REACTORS
330
3B
102
}
330
3B
100
AcDbProxyObject
 90
      499
 91
      502
 95
   393239
 70
     0
 93
      241
310
90C332F3422203D2031272D30220000000000003A0FC000000000000284040
 94
        0
  0
ACAD_PROXY_OBJECT
  5
58
102
{ACAD_REACTORS
330
3B
102
}
330
3B
100
AcDbProxyObject
 90
      499
 91
      502
 95
   393239
 70
     0
 93
      161
310
90A3122203D2031272D30224000000000000284000
 94
        0
  0
ACAD_PROXY_OBJECT
  5
59
102
{ACAD_REACTORS
330
3B
102
}
330
3B
100
AcDbProxyObject
 90
      499
 91
      502
 95
   393239
 70
     0
 93
      257
310
90E312D312F3222203D2031272D30220000000000003E0FC000000000000284000
 94
        0
  0
ACAD_PROXY_OBJECT
  5
5A
102
{ACAD_REACTORS
330
3B
102
}
330
3B
100
AcDbProxyObject
 90
      499
 91
      502
 95
   393239
 70
     0
 93
      225
310
90A3322203D2031272D302200000000000002100000000000000284000
 94
        0
  0
ACAD_PROXY_OBJECT
  5
5B
102
{ACAD_REACTORS
330
3B
102
}
330
3B
100
AcDbProxyObject
 90
      499
 91
      502
 95
   393239
 70
     0
 93
      225
310
90A3622203D2031272D302200000000000006100000000000000284000
 94
        0
  0
ACAD_PROXY_OBJECT
  5
5C
102
{ACAD_REACTORS
330
3B
102
}
330
3B
100
AcDbProxyObject
 90
      499
 91
      502
 95
   393239
 70
     0
 93
      249
310
90D31272D3022203D2031272D30220000000000000A100000000000000284040
 94
        0
  0
DICTIONARYVAR
  5
242
102
{ACAD_REACTORS
330
241
102
}
330
241
100
DictionaryVariables
280
     0
  1
1:1
  0
ENDSEC
  0
EOF
